  0
SECTION
  2
HEADER
  9
$ACADVER
  1
AC1014
  9
$ACADMAINTVER
 70
     9
  9
$DWGCODEPAGE
  3
ANSI_1252
  9
$INSBASE
 10
0.0
 20
0.0
 30
0.0
  9
$EXTMIN
 10
1.000000000000000E+20
 20
1.000000000000000E+20
 30
1.000000000000000E+20
  9
$EXTMAX
 10
-1.000000000000000E+20
 20
-1.000000000000000E+20
 30
-1.000000000000000E+20
  9
$LIMMIN
 10
0.0
 20
0.0
  9
$LIMMAX
 10
12.0
 20
9.0
  9
$ORTHOMODE
 70
     0
  9
$REGENMODE
 70
     1
  9
$FILLMODE
 70
     1
  9
$QTEXTMODE
 70
     0
  9
$MIRRTEXT
 70
     1
  9
$DRAGMODE
 70
     2
  9
$LTSCALE
 40
1.0
  9
$OSMODE
 70
    37
  9
$ATTMODE
 70
     1
  9
$TEXTSIZE
 40
0.2
  9
$TRACEWID
 40
0.05
  9
$TEXTSTYLE
  7
STANDARD
  9
$CLAYER
  8
0
  9
$CELTYPE
  6
BYLAYER
  9
$CECOLOR
 62
   256
  9
$CELTSCALE
 40
1.0
  9
$DELOBJ
 70
     1
  9
$DISPSILH
 70
     0
  9
$DIMSCALE
 40
1.0
  9
$DIMASZ
 40
0.18
  9
$DIMEXO
 40
0.0625
  9
$DIMDLI
 40
0.38
  9
$DIMRND
 40
0.0
  9
$DIMDLE
 40
0.0
  9
$DIMEXE
 40
0.18
  9
$DIMTP
 40
0.0
  9
$DIMTM
 40
0.0
  9
$DIMTXT
 40
0.18
  9
$DIMCEN
 40
0.09
  9
$DIMTSZ
 40
0.0
  9
$DIMTOL
 70
     0
  9
$DIMLIM
 70
     0
  9
$DIMTIH
 70
     1
  9
$DIMTOH
 70
     1
  9
$DIMSE1
 70
     0
  9
$DIMSE2
 70
     0
  9
$DIMTAD
 70
     0
  9
$DIMZIN
 70
     0
  9
$DIMBLK
  1

  9
$DIMASO
 70
     1
  9
$DIMSHO
 70
     1
  9
$DIMPOST
  1

  9
$DIMAPOST
  1

  9
$DIMALT
 70
     0
  9
$DIMALTD
 70
     2
  9
$DIMALTF
 40
0.0393700787401575
  9
$DIMLFAC
 40
1.0
  9
$DIMTOFL
 70
     0
  9
$DIMTVP
 40
0.0
  9
$DIMTIX
 70
     0
  9
$DIMSOXD
 70
     0
  9
$DIMSAH
 70
     0
  9
$DIMBLK1
  1

  9
$DIMBLK2
  1

  9
$DIMSTYLE
  2
STANDARD
  9
$DIMCLRD
 70
     0
  9
$DIMCLRE
 70
     0
  9
$DIMCLRT
 70
     0
  9
$DIMTFAC
 40
1.0
  9
$DIMGAP
 40
0.09
  9
$DIMJUST
 70
     0
  9
$DIMSD1
 70
     0
  9
$DIMSD2
 70
     0
  9
$DIMTOLJ
 70
     1
  9
$DIMTZIN
 70
     0
  9
$DIMALTZ
 70
     0
  9
$DIMALTTZ
 70
     0
  9
$DIMFIT
 70
     3
  9
$DIMUPT
 70
     0
  9
$DIMUNIT
 70
     2
  9
$DIMDEC
 70
     4
  9
$DIMTDEC
 70
     4
  9
$DIMALTU
 70
     2
  9
$DIMALTTD
 70
     2
  9
$DIMTXSTY
  7
STANDARD
  9
$DIMAUNIT
 70
     0
  9
$LUNITS
 70
     2
  9
$LUPREC
 70
     4
  9
$SKETCHINC
 40
0.1
  9
$FILLETRAD
 40
0.5
  9
$AUNITS
 70
     0
  9
$AUPREC
 70
     0
  9
$MENU
  1
.
  9
$ELEVATION
 40
0.0
  9
$PELEVATION
 40
0.0
  9
$THICKNESS
 40
0.0
  9
$LIMCHECK
 70
     0
  9
$CHAMFERA
 40
0.0
  9
$CHAMFERB
 40
0.0
  9
$CHAMFERC
 40
0.0
  9
$CHAMFERD
 40
0.0
  9
$SKPOLY
 70
     0
  9
$TDCREATE
 40
2459444.353736261
  9
$TDUPDATE
 40
2459444.353736342
  9
$TDINDWG
 40
0.0000000116
  9
$TDUSRTIMER
 40
0.0000000116
  9
$USRTIMER
 70
     1
  9
$ANGBASE
 50
0.0
  9
$ANGDIR
 70
     0
  9
$PDMODE
 70
     0
  9
$PDSIZE
 40
0.0
  9
$PLINEWID
 40
0.0
  9
$COORDS
 70
     1
  9
$SPLFRAME
 70
     0
  9
$SPLINETYPE
 70
     6
  9
$SPLINESEGS
 70
     8
  9
$ATTDIA
 70
     0
  9
$ATTREQ
 70
     1
  9
$HANDLING
 70
     1
  9
$HANDSEED
  5
10000566
  9
$SURFTAB1
 70
     6
  9
$SURFTAB2
 70
     6
  9
$SURFTYPE
 70
     6
  9
$SURFU
 70
     6
  9
$SURFV
 70
     6
  9
$UCSNAME
  2

  9
$UCSORG
 10
0.0
 20
0.0
 30
0.0
  9
$UCSXDIR
 10
1.0
 20
0.0
 30
0.0
  9
$UCSYDIR
 10
0.0
 20
1.0
 30
0.0
  9
$PUCSNAME
  2

  9
$PUCSORG
 10
0.0
 20
0.0
 30
0.0
  9
$PUCSXDIR
 10
1.0
 20
0.0
 30
0.0
  9
$PUCSYDIR
 10
0.0
 20
1.0
 30
0.0
  9
$USERI1
 70
     0
  9
$USERI2
 70
     0
  9
$USERI3
 70
     0
  9
$USERI4
 70
     0
  9
$USERI5
 70
     0
  9
$USERR1
 40
0.0
  9
$USERR2
 40
0.0
  9
$USERR3
 40
0.0
  9
$USERR4
 40
0.0
  9
$USERR5
 40
0.0
  9
$WORLDVIEW
 70
     1
  9
$SHADEDGE
 70
     3
  9
$SHADEDIF
 70
    70
  9
$TILEMODE
 70
     1
  9
$MAXACTVP
 70
    64
  9
$PINSBASE
 10
0.0
 20
0.0
 30
0.0
  9
$PLIMCHECK
 70
     0
  9
$PEXTMIN
 10
1.000000000000000E+20
 20
1.000000000000000E+20
 30
1.000000000000000E+20
  9
$PEXTMAX
 10
-1.000000000000000E+20
 20
-1.000000000000000E+20
 30
-1.000000000000000E+20
  9
$PLIMMIN
 10
0.0
 20
0.0
  9
$PLIMMAX
 10
12.0
 20
9.0
  9
$UNITMODE
 70
     0
  9
$VISRETAIN
 70
     1
  9
$PLINEGEN
 70
     0
  9
$PSLTSCALE
 70
     1
  9
$TREEDEPTH
 70
  3020
  9
$PICKSTYLE
 70
     1
  9
$CMLSTYLE
  2
STANDARD
  9
$CMLJUST
 70
     0
  9
$CMLSCALE
 40
1.0
  9
$PROXYGRAPHICS
 70
     1
  9
$MEASUREMENT
 70
     0
  0
ENDSEC
  0
SECTION
  2
CLASSES
  0
CLASS
  1
ACDBDICTIONARYWDFLT
  2
AcDbDictionaryWithDefault
  3
ObjectDBX Classes
 90
        0
280
     0
281
     0
  0
CLASS
  1
VISUALSTYLE
  2
AcDbVisualStyle
  3
ObjectDBX Classes
 90
     4095
280
     0
281
     0
  0
CLASS
  1
MATERIAL
  2
AcDbMaterial
  3
ObjectDBX Classes
 90
     1153
280
     0
281
     0
  0
CLASS
  1
SCALE
  2
AcDbScale
  3
ObjectDBX Classes
 90
     1153
280
     0
281
     0
  0
CLASS
  1
TABLESTYLE
  2
AcDbTableStyle
  3
ObjectDBX Classes
 90
     4095
280
     0
281
     0
  0
CLASS
  1
MLEADERSTYLE
  2
AcDbMLeaderStyle
  3
ACDB_MLEADERSTYLE_CLASS
 90
     4095
280
     0
281
     0
  0
CLASS
  1
SUN
  2
AcDbSun
  3
SCENEOE
 90
     1153
280
     0
281
     0
  0
CLASS
  1
SORTENTSTABLE
  2
AcDbSortentsTable
  3
ObjectDBX Classes
 90
        0
280
     0
281
     0
  0
CLASS
  1
DICTIONARYVAR
  2
AcDbDictionaryVar
  3
ObjectDBX Classes
 90
        0
280
     0
281
     0
  0
CLASS
  1
XRECORD
  2
AcDbXrecord
  3
ObjectDBX Classes
 90
        0
280
     0
281
     0
  0
CLASS
  1
LWPOLYLINE
  2
AcDbPolyline
  3
ObjectDBX Classes
 90
        0
280
     0
281
     1
  0
CLASS
  1
HATCH
  2
AcDbHatch
  3
ObjectDBX Classes
 90
        0
280
     0
281
     1
  0
CLASS
  1
ACDBPLACEHOLDER
  2
AcDbPlaceHolder
  3
ObjectDBX Classes
 90
        0
280
     0
281
     0
  0
CLASS
  1
LAYOUT
  2
AcDbLayout
  3
ObjectDBX Classes
 90
        0
280
     0
281
     0
  0
ENDSEC
  0
SECTION
  2
TABLES
  0
TABLE
  2
VPORT
  5
8
102
{ACAD_XDICTIONARY
360
1000055B
102
}
330
0
100
AcDbSymbolTable
 70
     1
  0
VPORT
  5
29
330
8
100
AcDbSymbolTableRecord
100
AcDbViewportTableRecord
  2
*ACTIVE
 70
     0
 10
0.0
 20
0.0
 11
1.0
 21
1.0
 12
10.42990654205607
 22
4.5
 13
0.0
 23
0.0
 14
0.5
 24
0.5
 15
0.5
 25
0.5
 16
0.0
 26
0.0
 36
1.0
 17
0.0
 27
0.0
 37
0.0
 40
9.0
 41
1.972972972850329
 42
50.0
 43
0.0
 44
0.0
 50
0.0
 51
0.0
 71
     0
 72
   100
 73
     1
 74
     3
 75
     0
 76
     0
 77
     0
 78
     0
  0
ENDTAB
  0
TABLE
  2
LTYPE
  5
5
330
0
100
AcDbSymbolTable
 70
     7
  0
LTYPE
  5
14
330
5
100
AcDbSymbolTableRecord
100
AcDbLinetypeTableRecord
  2
BYBLOCK
 70
     0
  3

 72
    65
 73
     0
 40
0.0
  0
LTYPE
  5
15
330
5
100
AcDbSymbolTableRecord
100
AcDbLinetypeTableRecord
  2
BYLAYER
 70
     0
  3

 72
    65
 73
     0
 40
0.0
  0
LTYPE
  5
16
330
5
100
AcDbSymbolTableRecord
100
AcDbLinetypeTableRecord
  2
CONTINUOUS
 70
     0
  3
Solid line
 72
    65
 73
     0
 40
0.0
  0
LTYPE
  5
10000024
330
5
100
AcDbSymbolTableRecord
100
AcDbLinetypeTableRecord
  2
ONS_PHANTOM
 70
     0
  3
Onshape Phantom line ______ __ __ ______
 72
    65
 73
     6
 40
0.4999999999999999
 49
0.25
 74
     0
 49
-0.05
 74
     0
 49
0.05
 74
     0
 49
-0.05
 74
     0
 49
0.05
 74
     0
 49
-0.05
 74
     0
  0
LTYPE
  5
10000025
330
5
100
AcDbSymbolTableRecord
100
AcDbLinetypeTableRecord
  2
CENTER
 70
     0
  3
Center line ____ _ ____ _ ____ _
 72
    65
 73
     4
 40
0.7199999999999999
 49
0.45
 74
     0
 49
-0.09
 74
     0
 49
0.09
 74
     0
 49
-0.09
 74
     0
  0
LTYPE
  5
10000026
330
5
100
AcDbSymbolTableRecord
100
AcDbLinetypeTableRecord
  2
DASHED
 70
     0
  3
Dashed line __ __ __ __ __
 72
    65
 73
     2
 40
0.75
 49
0.5
 74
     0
 49
-0.25
 74
     0
  0
LTYPE
  5
10000027
330
5
100
AcDbSymbolTableRecord
100
AcDbLinetypeTableRecord
  2
ONS_DASHDOT
 70
     0
  3
Onshape Dashed with Dot _ . ____ . ____
 72
    65
 73
     4
 40
0.71
 49
0.5
 74
     0
 49
-0.1
 74
     0
 49
0.01
 74
     0
 49
-0.1
 74
     0
  0
LTYPE
  5
10000028
330
5
100
AcDbSymbolTableRecord
100
AcDbLinetypeTableRecord
  2
ONS_DOTTED
 70
     0
  3
Onshape Dotted line . . . . . . .
 72
    65
 73
     2
 40
0.11
 49
0.01
 74
     0
 49
-0.1
 74
     0
  0
LTYPE
  5
10000029
330
5
100
AcDbSymbolTableRecord
100
AcDbLinetypeTableRecord
  2
HIDDEN
 70
     0
  3
Hidden line ____ ____ ____ ____ 
 72
    65
 73
     2
 40
0.15
 49
0.1
 74
     0
 49
-0.05
 74
     0
  0
ENDTAB
  0
TABLE
  2
LAYER
  5
2
330
0
100
AcDbSymbolTable
 70
    39
  0
LAYER
  5
10
330
2
100
AcDbSymbolTableRecord
100
AcDbLayerTableRecord
  2
0
 70
     0
 62
     7
  6
CONTINUOUS
  0
LAYER
  5
1000002A
330
2
100
AcDbSymbolTableRecord
100
AcDbLayerTableRecord
  2
SECTION_CUTTING_LINE
 70
     0
 62
     7
  6
ONS_PHANTOM
  0
LAYER
  5
1000002B
330
2
100
AcDbSymbolTableRecord
100
AcDbLayerTableRecord
  2
DETAIL_VIEW_BORDER
 70
     0
 62
     7
  6
CONTINUOUS
  0
LAYER
  5
1000002C
330
2
100
AcDbSymbolTableRecord
100
AcDbLayerTableRecord
  2
DETAIL_VIEW_PARENT_BORDER
 70
     0
 62
     7
  6
ONS_PHANTOM
  0
LAYER
  5
1000002D
330
2
100
AcDbSymbolTableRecord
100
AcDbLayerTableRecord
  2
TEXT
 70
     0
 62
     7
  6
CONTINUOUS
  0
LAYER
  5
1000002E
330
2
100
AcDbSymbolTableRecord
100
AcDbLayerTableRecord
  2
SKETCHED_GEOMETRY
 70
     0
 62
    -7
  6
CONTINUOUS
  0
LAYER
  5
1000002F
330
2
100
AcDbSymbolTableRecord
100
AcDbLayerTableRecord
  2
VIRTUAL_SHARPS
 70
     0
 62
    -7
  6
CONTINUOUS
  0
LAYER
  5
10000030
330
2
100
AcDbSymbolTableRecord
100
AcDbLayerTableRecord
  2
CENTERLINES
 70
     0
 62
    -7
  6
CENTER
  0
LAYER
  5
10000031
330
2
100
AcDbSymbolTableRecord
100
AcDbLayerTableRecord
  2
CENTERMARKS
 70
     0
 62
    -7
  6
CONTINUOUS
  0
LAYER
  5
10000032
330
2
100
AcDbSymbolTableRecord
100
AcDbLayerTableRecord
  2
TABLES
 70
     0
 62
     7
  6
CONTINUOUS
  0
LAYER
  5
10000033
330
2
100
AcDbSymbolTableRecord
100
AcDbLayerTableRecord
  2
IMAGES
 70
     0
 62
    -7
  6
CONTINUOUS
  0
LAYER
  5
10000034
330
2
100
AcDbSymbolTableRecord
100
AcDbLayerTableRecord
  2
ANNOTATION_LINES
 70
     0
 62
    -7
  6
CONTINUOUS
  0
LAYER
  5
10000035
330
2
100
AcDbSymbolTableRecord
100
AcDbLayerTableRecord
  2
ANNOTATION_TEXT
 70
     0
 62
    -7
  6
CONTINUOUS
  0
LAYER
  5
10000036
330
2
100
AcDbSymbolTableRecord
100
AcDbLayerTableRecord
  2
SIDE_THREAD_SYMBOLS
 70
     0
 62
     7
  6
HIDDEN
  0
LAYER
  5
10000037
330
2
100
AcDbSymbolTableRecord
100
AcDbLayerTableRecord
  2
SIDE_THREAD_SYMBOLS_HIDDEN
 70
     0
 62
    -7
  6
HIDDEN
  0
LAYER
  5
10000038
330
2
100
AcDbSymbolTableRecord
100
AcDbLayerTableRecord
  2
SURFACE_THREAD_SYMBOLS
 70
     0
 62
     7
  6
HIDDEN
  0
LAYER
  5
10000039
330
2
100
AcDbSymbolTableRecord
100
AcDbLayerTableRecord
  2
SURFACE_THREAD_SYMBOLS_ON_
 70
     0
 62
     7
  6
HIDDEN
  0
LAYER
  5
1000003A
330
2
100
AcDbSymbolTableRecord
100
AcDbLayerTableRecord
  2
SURFACE_THREAD_SYMBOLS_HID
 70
     0
 62
    -7
  6
HIDDEN
  0
LAYER
  5
1000003B
330
2
100
AcDbSymbolTableRecord
100
AcDbLayerTableRecord
  2
BLIND_THREAD_SYMBOLS
 70
     0
 62
     7
  6
CONTINUOUS
  0
LAYER
  5
1000003C
330
2
100
AcDbSymbolTableRecord
100
AcDbLayerTableRecord
  2
BLIND_THREAD_SYMBOLS_HIDDE
 70
     0
 62
    -7
  6
HIDDEN
  0
LAYER
  5
1000003D
330
2
100
AcDbSymbolTableRecord
100
AcDbLayerTableRecord
  2
EXPLODE_LINES
 70
     0
 62
     7
  6
ONS_PHANTOM
  0
LAYER
  5
1000003E
330
2
100
AcDbSymbolTableRecord
100
AcDbLayerTableRecord
  2
HIDDEN_EXPLODE_LINES
 70
     0
 62
    -7
  6
ONS_PHANTOM
  0
LAYER
  5
1000003F
330
2
100
AcDbSymbolTableRecord
100
AcDbLayerTableRecord
  2
BREAK_LINES
 70
     0
 62
    -7
  6
CONTINUOUS
  0
LAYER
  5
10000040
330
2
100
AcDbSymbolTableRecord
100
AcDbLayerTableRecord
  2
SHEETMETAL_BEND_LINES_UP
 70
     0
 62
     7
  6
CENTER
  0
LAYER
  5
10000041
330
2
100
AcDbSymbolTableRecord
100
AcDbLayerTableRecord
  2
SHEETMETAL_BEND_LINES_DOWN
 70
     0
 62
     7
  6
CENTER
  0
LAYER
  5
10000042
330
2
100
AcDbSymbolTableRecord
100
AcDbLayerTableRecord
  2
SHEETMETAL_BEND_TANGENT_LI
 70
     0
 62
     7
  6
CONTINUOUS
  0
LAYER
  5
10000043
330
2
100
AcDbSymbolTableRecord
100
AcDbLayerTableRecord
  2
SHEETMETAL_CUT_LINES
 70
     0
 62
     7
  6
CONTINUOUS
  0
LAYER
  5
10000044
330
2
100
AcDbSymbolTableRecord
100
AcDbLayerTableRecord
  2
REGION_ASSOC_POINTS
 70
     0
 62
    -7
  6
CONTINUOUS
  0
LAYER
  5
10000045
330
2
100
AcDbSymbolTableRecord
100
AcDbLayerTableRecord
  2
HIDDEN
 70
     0
 62
    -7
  6
HIDDEN
  0
LAYER
  5
10000046
330
2
100
AcDbSymbolTableRecord
100
AcDbLayerTableRecord
  2
VISIBLE
 70
     0
 62
     7
  6
CONTINUOUS
  0
LAYER
  5
10000047
330
2
100
AcDbSymbolTableRecord
100
AcDbLayerTableRecord
  2
MODELSKETCH_VISIBLE
 70
     0
 62
     7
  6
CONTINUOUS
  0
LAYER
  5
10000048
330
2
100
AcDbSymbolTableRecord
100
AcDbLayerTableRecord
  2
MODELSKETCH_POINT
 70
     0
 62
     7
  6
CONTINUOUS
  0
LAYER
  5
10000049
330
2
100
AcDbSymbolTableRecord
100
AcDbLayerTableRecord
  2
MODELSKETCH_CONSTRUCTION
 70
     0
 62
    -7
  6
CENTER
  0
LAYER
  5
1000004A
330
2
100
AcDbSymbolTableRecord
100
AcDbLayerTableRecord
  2
HIDDEN_BASE_VIEW
 70
     0
 62
     7
  6
CONTINUOUS
  0
LAYER
  5
1000004B
330
2
100
AcDbSymbolTableRecord
100
AcDbLayerTableRecord
  2
TANGENT_LINES
 70
     0
 62
    -7
  6
CONTINUOUS
  0
LAYER
  5
1000004C
330
2
100
AcDbSymbolTableRecord
100
AcDbLayerTableRecord
  2
TANGENT_HIDDEN
 70
     0
 62
    -7
  6
HIDDEN
  0
LAYER
  5
1000004D
330
2
100
AcDbSymbolTableRecord
100
AcDbLayerTableRecord
  2
INVISIBLE_LINES
 70
     0
 62
    -7
  6
CONTINUOUS
  0
LAYER
  5
1000004E
330
2
100
AcDbSymbolTableRecord
100
AcDbLayerTableRecord
  2
VIEW_HATCHES
 70
     0
 62
    -7
  6
CONTINUOUS
  0
LAYER
  5
1000004F
330
2
100
AcDbSymbolTableRecord
100
AcDbLayerTableRecord
  2
SECTION_JOG_LINES
 70
     0
 62
    -7
  6
CONTINUOUS
  0
ENDTAB
  0
TABLE
  2
STYLE
  5
3
330
0
100
AcDbSymbolTable
 70
     2
  0
STYLE
  5
11
330
3
100
AcDbSymbolTableRecord
100
AcDbTextStyleTableRecord
  2
STANDARD
 70
     0
 40
0.0
 41
1.0
 50
0.0
 71
     0
 42
0.2
  3
txt
  4

  0
STYLE
  5
10000004
330
3
100
AcDbSymbolTableRecord
100
AcDbTextStyleTableRecord
  2
TTFSTYLE
 70
     0
 40
0.0
 41
1.0
 50
0.0
 71
     0
 42
0.2
  3
Verdana.ttf
  4

1001
ACAD
1000
Verdana
1071
       34
  0
ENDTAB
  0
TABLE
  2
VIEW
  5
6
330
0
100
AcDbSymbolTable
 70
     0
  0
ENDTAB
  0
TABLE
  2
UCS
  5
7
330
0
100
AcDbSymbolTable
 70
     0
  0
ENDTAB
  0
TABLE
  2
APPID
  5
9
330
0
100
AcDbSymbolTable
 70
     2
  0
APPID
  5
12
330
9
100
AcDbSymbolTableRecord
100
AcDbRegAppTableRecord
  2
ACAD
 70
     0
  0
APPID
  5
10000565
330
9
100
AcDbSymbolTableRecord
100
AcDbRegAppTableRecord
  2
ACAD_MLEADERVER
 70
     0
  0
ENDTAB
  0
TABLE
  2
DIMSTYLE
  5
A
330
0
100
AcDbSymbolTable
 70
     1
  0
DIMSTYLE
105
27
330
A
100
AcDbSymbolTableRecord
100
AcDbDimStyleTableRecord
  2
STANDARD
 70
     0
  3

  4

  5

  6

  7

 40
1.0
 41
0.18
 42
0.0625
 43
0.38
 44
0.18
 45
0.0
 46
0.0
 47
0.0
 48
0.0
140
0.18
141
0.09
142
0.0
143
25.4
144
1.0
145
0.0
146
1.0
147
0.09
 71
     0
 72
     0
 73
     1
 74
     1
 75
     0
 76
     0
 77
     0
 78
     0
170
     0
171
     2
172
     0
173
     0
174
     0
175
     0
176
     0
177
     0
178
     0
270
     2
271
     4
272
     4
273
     2
274
     2
340
11
275
     0
280
     0
281
     0
282
     0
283
     1
284
     0
285
     0
286
     0
287
     3
288
     0
  0
ENDTAB
  0
TABLE
  2
BLOCK_RECORD
  5
1
330
0
100
AcDbSymbolTable
 70
     0
  0
BLOCK_RECORD
  5
1F
102
{ACAD_XDICTIONARY
360
10000530
102
}
330
1
100
AcDbSymbolTableRecord
100
AcDbBlockTableRecord
  2
*MODEL_SPACE
  0
BLOCK_RECORD
  5
1B
330
1
100
AcDbSymbolTableRecord
100
AcDbBlockTableRecord
  2
*PAPER_SPACE
  0
ENDTAB
  0
ENDSEC
  0
SECTION
  2
BLOCKS
  0
BLOCK
  5
20
330
1F
100
AcDbEntity
  8
0
100
AcDbBlockBegin
  2
*MODEL_SPACE
 70
     0
 10
0.0
 20
0.0
 30
0.0
  3
*MODEL_SPACE
  1

  0
ENDBLK
  5
21
330
1F
100
AcDbEntity
  8
0
100
AcDbBlockEnd
  0
BLOCK
  5
1C
330
1B
100
AcDbEntity
 67
     1
  8
0
100
AcDbBlockBegin
  2
*PAPER_SPACE
 70
     0
 10
0.0
 20
0.0
 30
0.0
  3
*PAPER_SPACE
  1

  0
ENDBLK
  5
1D
330
1B
100
AcDbEntity
 67
     1
  8
0
100
AcDbBlockEnd
  0
ENDSEC
  0
SECTION
  2
ENTITIES
  0
ARC
  5
10000050
102
{ACAD_XDICTIONARY
360
10000051
102
}
330
1F
100
AcDbEntity
  8
MODELSKETCH_VISIBLE
100
AcDbCircle
 10
9.000000000000002
 20
-45.99999999999999
 30
0.0
 40
1.00000000000001
100
AcDbArc
 50
270.0000000000006
 51
0.0
  0
ARC
  5
10000053
102
{ACAD_XDICTIONARY
360
10000054
102
}
330
1F
100
AcDbEntity
  8
MODELSKETCH_VISIBLE
100
AcDbCircle
 10
-21.00000000000002
 20
45.00000000000001
 30
0.0
 40
2.000000000000012
100
AcDbArc
 50
90.0
 51
180.0
  0
LINE
  5
10000056
102
{ACAD_XDICTIONARY
360
10000057
102
}
330
1F
100
AcDbEntity
  8
MODELSKETCH_VISIBLE
100
AcDbLine
 10
9.000000000000012
 20
-47.0
 30
0.0
 11
4.000000000000014
 21
-47.0
 31
0.0
  0
ARC
  5
10000059
102
{ACAD_XDICTIONARY
360
1000005A
102
}
330
1F
100
AcDbEntity
  8
MODELSKETCH_VISIBLE
100
AcDbCircle
 10
34.99999999999997
 20
30.00000000000002
 30
0.0
 40
1.000000000000011
100
AcDbArc
 50
180.0
 51
270.0000000000004
  0
ARC
  5
1000005C
102
{ACAD_XDICTIONARY
360
1000005D
102
}
330
1F
100
AcDbEntity
  8
MODELSKETCH_VISIBLE
100
AcDbCircle
 10
-21.00000000000001
 20
22.00000000000001
 30
0.0
 40
2.000000000000007
100
AcDbArc
 50
180.0000000000003
 51
270.0000000000001
  0
ARC
  5
1000005F
102
{ACAD_XDICTIONARY
360
10000060
102
}
330
1F
100
AcDbEntity
  8
MODELSKETCH_VISIBLE
100
AcDbCircle
 10
-9.000000000000028
 20
-45.99999999999997
 30
0.0
 40
0.9999999999999991
100
AcDbArc
 50
180.0000000000008
 51
270.0000000000008
  0
ARC
  5
10000062
102
{ACAD_XDICTIONARY
360
10000063
102
}
330
1F
100
AcDbEntity
  8
MODELSKETCH_VISIBLE
100
AcDbCircle
 10
13.99999999999998
 20
46.00000000000001
 30
0.0
 40
1.000000000000009
100
AcDbArc
 50
269.9999999999994
 51
0.0
  0
ARC
  5
10000065
102
{ACAD_XDICTIONARY
360
10000066
102
}
330
1F
100
AcDbEntity
  8
MODELSKETCH_VISIBLE
100
AcDbCircle
 10
-28.0
 20
-28.99999999999998
 30
0.0
 40
2.000000000000009
100
AcDbArc
 50
270.0
 51
0.0
  0
ARC
  5
10000068
102
{ACAD_XDICTIONARY
360
10000069
102
}
330
1F
100
AcDbEntity
  8
MODELSKETCH_VISIBLE
100
AcDbCircle
 10
27.99999999999997
 20
29.00000000000002
 30
0.0
 40
2.000000000000005
100
AcDbArc
 50
90.0
 51
180.0000000000001
  0
ARC
  5
1000006B
102
{ACAD_XDICTIONARY
360
1000006C
102
}
330
1F
100
AcDbEntity
  8
MODELSKETCH_VISIBLE
100
AcDbCircle
 10
4.000000000000017
 20
-45.0
 30
0.0
 40
2.00000000000001
100
AcDbArc
 50
180.0000000000002
 51
269.9999999999999
  0
ARC
  5
1000006E
102
{ACAD_XDICTIONARY
360
1000006F
102
}
330
1F
100
AcDbEntity
  8
MODELSKETCH_VISIBLE
100
AcDbCircle
 10
13.99999999999998
 20
21.0
 30
0.0
 40
1.000000000000016
100
AcDbArc
 50
0.0
 51
90.0
  0
ARC
  5
10000071
102
{ACAD_XDICTIONARY
360
10000072
102
}
330
1F
100
AcDbEntity
  8
MODELSKETCH_VISIBLE
100
AcDbCircle
 10
32.99999999999996
 20
30.00000000000001
 30
0.0
 40
1.00000000000001
100
AcDbArc
 50
0.0
 51
89.99999999999959
  0
ARC
  5
10000074
102
{ACAD_XDICTIONARY
360
10000075
102
}
330
1F
100
AcDbEntity
  8
MODELSKETCH_VISIBLE
100
AcDbCircle
 10
-45.00000000000001
 20
-6.000000000000004
 30
0.0
 40
2.000000000000011
100
AcDbArc
 50
90.0
 51
179.9999999999997
  0
LINE
  5
10000077
102
{ACAD_XDICTIONARY
360
10000078
102
}
330
1F
100
AcDbEntity
  8
MODELSKETCH_VISIBLE
100
AcDbLine
 10
32.99999999999998
 20
4.000000000000018
 30
0.0
 11
27.99999999999998
 21
4.000000000000014
 31
0.0
  0
ARC
  5
1000007A
102
{ACAD_XDICTIONARY
360
1000007B
102
}
330
1F
100
AcDbEntity
  8
MODELSKETCH_VISIBLE
100
AcDbCircle
 10
3.999999999999983
 20
45.0
 30
0.0
 40
2.000000000000009
100
AcDbArc
 50
90.0
 51
180.0
  0
ARC
  5
1000007D
102
{ACAD_XDICTIONARY
360
1000007E
102
}
330
1F
100
AcDbEntity
  8
MODELSKETCH_VISIBLE
100
AcDbCircle
 10
-39.99999999999999
 20
5.000000000000018
 30
0.0
 40
1.000000000000011
100
AcDbArc
 50
270.0000000000004
 51
0.0
  0
ARC
  5
10000080
102
{ACAD_XDICTIONARY
360
10000081
102
}
330
1F
100
AcDbEntity
  8
MODELSKETCH_VISIBLE
100
AcDbCircle
 10
16.00000000000002
 20
-45.99999999999999
 30
0.0
 40
1.000000000000004
100
AcDbArc
 50
180.0000000000004
 51
270.0000000000002
  0
CIRCLE
  5
10000083
102
{ACAD_XDICTIONARY
360
10000084
102
}
330
1F
100
AcDbEntity
  8
MODELSKETCH_VISIBLE
100
AcDbCircle
 10
19.5
 20
-11.5
 30
0.0
 40
1.750000000000002
  0
ARC
  5
10000086
102
{ACAD_XDICTIONARY
360
10000087
102
}
330
1F
100
AcDbEntity
  8
MODELSKETCH_VISIBLE
100
AcDbCircle
 10
21.0
 20
-6.499999999999991
 30
0.0
 40
1.0
100
AcDbArc
 50
270.0000000000002
 51
0.0
  0
LINE
  5
10000089
102
{ACAD_XDICTIONARY
360
1000008A
102
}
330
1F
100
AcDbEntity
  8
MODELSKETCH_VISIBLE
100
AcDbLine
 10
21.0
 20
-7.499999999999993
 30
0.0
 11
19.5
 21
-7.499999999999993
 31
0.0
  0
LINE
  5
1000008C
102
{ACAD_XDICTIONARY
360
1000008D
102
}
330
1F
100
AcDbEntity
  8
MODELSKETCH_VISIBLE
100
AcDbLine
 10
15.49999999999999
 20
-11.5
 30
0.0
 11
15.49999999999999
 21
-12.99999999999999
 31
0.0
  0
ARC
  5
1000008F
102
{ACAD_XDICTIONARY
360
10000090
102
}
330
1F
100
AcDbEntity
  8
MODELSKETCH_VISIBLE
100
AcDbCircle
 10
14.49999999999999
 20
-12.99999999999999
 30
0.0
 40
1.000000000000004
100
AcDbArc
 50
270.0
 51
0.0
  0
ARC
  5
10000092
102
{ACAD_XDICTIONARY
360
10000093
102
}
330
1F
100
AcDbEntity
  8
MODELSKETCH_VISIBLE
100
AcDbCircle
 10
-14.49999999999999
 20
-12.99999999999999
 30
0.0
 40
1.000000000000004
100
AcDbArc
 50
180.0000000000004
 51
270.0000000000002
  0
LINE
  5
10000095
102
{ACAD_XDICTIONARY
360
10000096
102
}
330
1F
100
AcDbEntity
  8
MODELSKETCH_VISIBLE
100
AcDbLine
 10
-15.49999999999999
 20
-11.5
 30
0.0
 11
-15.49999999999999
 21
-13.0
 31
0.0
  0
ARC
  5
10000098
102
{ACAD_XDICTIONARY
360
10000099
102
}
330
1F
100
AcDbEntity
  8
MODELSKETCH_VISIBLE
100
AcDbCircle
 10
-19.5
 20
-11.49999999999999
 30
0.0
 40
3.999999999999998
100
AcDbArc
 50
0.0
 51
89.9999999999999
  0
ARC
  5
1000009B
102
{ACAD_XDICTIONARY
360
1000009C
102
}
330
1F
100
AcDbEntity
  8
MODELSKETCH_VISIBLE
100
AcDbCircle
 10
-48.0
 20
39.49999999999999
 30
0.0
 40
1.999999999999998
100
AcDbArc
 50
90.0
 51
179.9999999999996
  0
LINE
  5
1000009E
102
{ACAD_XDICTIONARY
360
1000009F
102
}
330
1F
100
AcDbEntity
  8
MODELSKETCH_VISIBLE
100
AcDbLine
 10
-47.99999999999999
 20
-41.5
 30
0.0
 11
-41.49999999999999
 21
-41.5
 31
0.0
  0
ARC
  5
100000A1
102
{ACAD_XDICTIONARY
360
100000A2
102
}
330
1F
100
AcDbEntity
  8
MODELSKETCH_VISIBLE
100
AcDbCircle
 10
-47.99999999999999
 20
-39.49999999999999
 30
0.0
 40
2.000000000000002
100
AcDbArc
 50
180.0000000000004
 51
270.0
  0
LINE
  5
100000A4
102
{ACAD_XDICTIONARY
360
100000A5
102
}
330
1F
100
AcDbEntity
  8
MODELSKETCH_VISIBLE
100
AcDbLine
 10
48.0
 20
41.5
 30
0.0
 11
41.5
 21
41.5
 31
0.0
  0
ARC
  5
100000A7
102
{ACAD_XDICTIONARY
360
100000A8
102
}
330
1F
100
AcDbEntity
  8
MODELSKETCH_VISIBLE
100
AcDbCircle
 10
-39.50000000000001
 20
-48.0
 30
0.0
 40
1.999999999999991
100
AcDbArc
 50
180.0000000000004
 51
270.0000000000004
  0
LINE
  5
100000AA
102
{ACAD_XDICTIONARY
360
100000AB
102
}
330
1F
100
AcDbEntity
  8
MODELSKETCH_VISIBLE
100
AcDbLine
 10
41.5
 20
41.50000000000001
 30
0.0
 11
41.5
 21
48.00000000000001
 31
0.0
  0
ARC
  5
100000AD
102
{ACAD_XDICTIONARY
360
100000AE
102
}
330
1F
100
AcDbEntity
  8
MODELSKETCH_VISIBLE
100
AcDbCircle
 10
39.50000000000004
 20
-47.99999999999999
 30
0.0
 40
2.000000000000009
100
AcDbArc
 50
269.9999999999996
 51
0.0
  0
LINE
  5
100000B0
102
{ACAD_XDICTIONARY
360
100000B1
102
}
330
1F
100
AcDbEntity
  8
MODELSKETCH_VISIBLE
100
AcDbLine
 10
-41.5
 20
41.5
 30
0.0
 11
-41.5
 21
48.0
 31
0.0
  0
ARC
  5
100000B3
102
{ACAD_XDICTIONARY
360
100000B4
102
}
330
1F
100
AcDbEntity
  8
MODELSKETCH_VISIBLE
100
AcDbCircle
 10
48.00000000000004
 20
-39.49999999999998
 30
0.0
 40
2.000000000000002
100
AcDbArc
 50
269.9999999999996
 51
0.0
  0
LINE
  5
100000B6
102
{ACAD_XDICTIONARY
360
100000B7
102
}
330
1F
100
AcDbEntity
  8
MODELSKETCH_VISIBLE
100
AcDbLine
 10
-48.0
 20
41.5
 30
0.0
 11
-41.5
 21
41.5
 31
0.0
  0
ARC
  5
100000B9
102
{ACAD_XDICTIONARY
360
100000BA
102
}
330
1F
100
AcDbEntity
  8
MODELSKETCH_VISIBLE
100
AcDbCircle
 10
48.0
 20
39.50000000000001
 30
0.0
 40
2.000000000000005
100
AcDbArc
 50
0.0
 51
90.0
  0
LINE
  5
100000BC
102
{ACAD_XDICTIONARY
360
100000BD
102
}
330
1F
100
AcDbEntity
  8
MODELSKETCH_VISIBLE
100
AcDbLine
 10
48.00000000000002
 20
-41.49999999999999
 30
0.0
 11
41.50000000000001
 21
-41.49999999999999
 31
0.0
  0
ARC
  5
100000BF
102
{ACAD_XDICTIONARY
360
100000C0
102
}
330
1F
100
AcDbEntity
  8
MODELSKETCH_VISIBLE
100
AcDbCircle
 10
39.50000000000001
 20
48.00000000000001
 30
0.0
 40
1.999999999999998
100
AcDbArc
 50
0.0
 51
90.0000000000004
  0
LINE
  5
100000C2
102
{ACAD_XDICTIONARY
360
100000C3
102
}
330
1F
100
AcDbEntity
  8
MODELSKETCH_VISIBLE
100
AcDbLine
 10
41.50000000000001
 20
-41.50000000000001
 30
0.0
 11
41.50000000000001
 21
-48.00000000000001
 31
0.0
  0
LINE
  5
100000C5
102
{ACAD_XDICTIONARY
360
100000C6
102
}
330
1F
100
AcDbEntity
  8
MODELSKETCH_VISIBLE
100
AcDbLine
 10
-41.5
 20
-41.5
 30
0.0
 11
-41.5
 21
-48.00000000000001
 31
0.0
  0
LINE
  5
100000C8
102
{ACAD_XDICTIONARY
360
100000C9
102
}
330
1F
100
AcDbEntity
  8
MODELSKETCH_VISIBLE
100
AcDbLine
 10
15.49999999999999
 20
11.5
 30
0.0
 11
15.49999999999999
 21
13.0
 31
0.0
  0
ARC
  5
100000CB
102
{ACAD_XDICTIONARY
360
100000CC
102
}
330
1F
100
AcDbEntity
  8
MODELSKETCH_VISIBLE
100
AcDbCircle
 10
19.5
 20
11.5
 30
0.0
 40
3.999999999999998
100
AcDbArc
 50
179.9999999999999
 51
270.0
  0
LINE
  5
100000CE
102
{ACAD_XDICTIONARY
360
100000CF
102
}
330
1F
100
AcDbEntity
  8
MODELSKETCH_VISIBLE
100
AcDbLine
 10
21.0
 20
7.499999999999999
 30
0.0
 11
19.5
 21
7.499999999999999
 31
0.0
  0
ARC
  5
100000D1
102
{ACAD_XDICTIONARY
360
100000D2
102
}
330
1F
100
AcDbEntity
  8
MODELSKETCH_VISIBLE
100
AcDbCircle
 10
21.0
 20
6.5
 30
0.0
 40
1.0
100
AcDbArc
 50
0.0
 51
90.0
  0
CIRCLE
  5
100000D4
102
{ACAD_XDICTIONARY
360
100000D5
102
}
330
1F
100
AcDbEntity
  8
MODELSKETCH_VISIBLE
100
AcDbCircle
 10
-19.5
 20
11.5
 30
0.0
 40
1.750000000000002
  0
ARC
  5
100000D7
102
{ACAD_XDICTIONARY
360
100000D8
102
}
330
1F
100
AcDbEntity
  8
MODELSKETCH_VISIBLE
100
AcDbCircle
 10
-14.49999999999999
 20
13.0
 30
0.0
 40
1.000000000000003
100
AcDbArc
 50
90.0
 51
180.0
  0
ARC
  5
100000DA
102
{ACAD_XDICTIONARY
360
100000DB
102
}
330
1F
100
AcDbEntity
  8
MODELSKETCH_VISIBLE
100
AcDbCircle
 10
-21.0
 20
6.5
 30
0.0
 40
1.0
100
AcDbArc
 50
90.0
 51
180.0
  0
ARC
  5
100000DD
102
{ACAD_XDICTIONARY
360
100000DE
102
}
330
1F
100
AcDbEntity
  8
MODELSKETCH_VISIBLE
100
AcDbCircle
 10
-19.5
 20
11.5
 30
0.0
 40
3.999999999999998
100
AcDbArc
 50
270.0
 51
0.0
  0
LINE
  5
100000E0
102
{ACAD_XDICTIONARY
360
100000E1
102
}
330
1F
100
AcDbEntity
  8
MODELSKETCH_VISIBLE
100
AcDbLine
 10
-21.0
 20
7.5
 30
0.0
 11
-19.5
 21
7.5
 31
0.0
  0
LINE
  5
100000E3
102
{ACAD_XDICTIONARY
360
100000E4
102
}
330
1F
100
AcDbEntity
  8
MODELSKETCH_VISIBLE
100
AcDbLine
 10
-15.49999999999999
 20
11.5
 30
0.0
 11
-15.49999999999999
 21
13.0
 31
0.0
  0
LINE
  5
100000E6
102
{ACAD_XDICTIONARY
360
100000E7
102
}
330
1F
100
AcDbEntity
  8
MODELSKETCH_VISIBLE
100
AcDbLine
 10
14.49999999999999
 20
13.99999999999999
 30
0.0
 11
-14.49999999999999
 21
14.00000000000001
 31
0.0
  0
LINE
  5
100000E9
102
{ACAD_XDICTIONARY
360
100000EA
102
}
330
1F
100
AcDbEntity
  8
MODELSKETCH_VISIBLE
100
AcDbLine
 10
-20.99999999999999
 20
-7.500000000000002
 30
0.0
 11
-19.5
 21
-7.500000000000001
 31
0.0
  0
ARC
  5
100000EC
102
{ACAD_XDICTIONARY
360
100000ED
102
}
330
1F
100
AcDbEntity
  8
MODELSKETCH_VISIBLE
100
AcDbCircle
 10
-21.0
 20
-6.499999999999992
 30
0.0
 40
1.0
100
AcDbArc
 50
180.0000000000007
 51
270.0000000000002
  0
ARC
  5
100000EF
102
{ACAD_XDICTIONARY
360
100000F0
102
}
330
1F
100
AcDbEntity
  8
MODELSKETCH_VISIBLE
100
AcDbCircle
 10
14.49999999999999
 20
13.0
 30
0.0
 40
1.000000000000003
100
AcDbArc
 50
0.0
 51
90.0
  0
LINE
  5
100000F2
102
{ACAD_XDICTIONARY
360
100000F3
102
}
330
1F
100
AcDbEntity
  8
MODELSKETCH_VISIBLE
100
AcDbLine
 10
27.99999999999998
 20
4.000000000000014
 30
0.0
 11
32.99999999999998
 21
4.000000000000018
 31
0.0
  0
ARC
  5
100000F5
102
{ACAD_XDICTIONARY
360
100000F6
102
}
330
1F
100
AcDbEntity
  8
MODELSKETCH_VISIBLE
100
AcDbCircle
 10
32.99999999999996
 20
-5.000000000000003
 30
0.0
 40
1.00000000000001
100
AcDbArc
 50
0.0
 51
89.99999999999959
  0
ARC
  5
100000F8
102
{ACAD_XDICTIONARY
360
100000F9
102
}
330
1F
100
AcDbEntity
  8
MODELSKETCH_VISIBLE
100
AcDbCircle
 10
-40.00000000000002
 20
-5.000000000000003
 30
0.0
 40
1.00000000000001
100
AcDbArc
 50
0.0
 51
89.99999999999959
  0
ARC
  5
100000FB
102
{ACAD_XDICTIONARY
360
100000FC
102
}
330
1F
100
AcDbEntity
  8
MODELSKETCH_VISIBLE
100
AcDbCircle
 10
-4.00000000000003
 20
-21.99999999999999
 30
0.0
 40
2.000000000000007
100
AcDbArc
 50
0.0
 51
90.0000000000002
  0
LINE
  5
100000FE
102
{ACAD_XDICTIONARY
360
100000FF
102
}
330
1F
100
AcDbEntity
  8
MODELSKETCH_VISIBLE
100
AcDbLine
 10
25.99999999999998
 20
-29.0
 30
0.0
 11
25.99999999999997
 21
-5.999999999999991
 31
0.0
  0
ARC
  5
10000101
102
{ACAD_XDICTIONARY
360
10000102
102
}
330
1F
100
AcDbEntity
  8
MODELSKETCH_VISIBLE
100
AcDbCircle
 10
34.99999999999998
 20
-4.999999999999987
 30
0.0
 40
1.000000000000015
100
AcDbArc
 50
180.0000000000009
 51
270.0
  0
LINE
  5
10000104
102
{ACAD_XDICTIONARY
360
10000105
102
}
330
1F
100
AcDbEntity
  8
MODELSKETCH_VISIBLE
100
AcDbLine
 10
32.99999999999996
 20
31.00000000000001
 30
0.0
 11
27.99999999999997
 21
31.00000000000001
 31
0.0
  0
LINE
  5
10000107
102
{ACAD_XDICTIONARY
360
10000108
102
}
330
1F
100
AcDbEntity
  8
MODELSKETCH_VISIBLE
100
AcDbLine
 10
-4.000000000000022
 20
-46.99999999999997
 30
0.0
 11
-9.000000000000014
 21
-46.99999999999997
 31
0.0
  0
ARC
  5
1000010A
102
{ACAD_XDICTIONARY
360
1000010B
102
}
330
1F
100
AcDbEntity
  8
MODELSKETCH_VISIBLE
100
AcDbCircle
 10
-14.0
 20
21.00000000000001
 30
0.0
 40
1.000000000000016
100
AcDbArc
 50
90.0
 51
179.9999999999998
  0
ARC
  5
1000010D
102
{ACAD_XDICTIONARY
360
1000010E
102
}
330
1F
100
AcDbEntity
  8
MODELSKETCH_VISIBLE
100
AcDbCircle
 10
4.0
 20
-22.00000000000001
 30
0.0
 40
2.000000000000009
100
AcDbArc
 50
90.0
 51
179.9999999999998
  0
LINE
  5
10000110
102
{ACAD_XDICTIONARY
360
10000111
102
}
330
1F
100
AcDbEntity
  8
MODELSKETCH_VISIBLE
100
AcDbLine
 10
-45.00000000000001
 20
-3.999999999999995
 30
0.0
 11
-40.00000000000001
 21
-3.999999999999992
 31
0.0
  0
ARC
  5
10000113
102
{ACAD_XDICTIONARY
360
10000114
102
}
330
1F
100
AcDbEntity
  8
MODELSKETCH_VISIBLE
100
AcDbCircle
 10
-35.00000000000001
 20
-29.99999999999999
 30
0.0
 40
1.000000000000016
100
AcDbArc
 50
0.0
 51
90.0
  0
ARC
  5
10000116
102
{ACAD_XDICTIONARY
360
10000117
102
}
330
1F
100
AcDbEntity
  8
MODELSKETCH_VISIBLE
100
AcDbCircle
 10
-32.99999999999996
 20
5.000000000000011
 30
0.0
 40
1.000000000000004
100
AcDbArc
 50
180.0
 51
269.9999999999996
  0
ARC
  5
10000119
102
{ACAD_XDICTIONARY
360
1000011A
102
}
330
1F
100
AcDbEntity
  8
MODELSKETCH_VISIBLE
100
AcDbCircle
 10
-4.000000000000004
 20
22.00000000000002
 30
0.0
 40
2.000000000000009
100
AcDbArc
 50
270.0
 51
0.0
  0
ARC
  5
1000011C
102
{ACAD_XDICTIONARY
360
1000011D
102
}
330
1F
100
AcDbEntity
  8
MODELSKETCH_VISIBLE
100
AcDbCircle
 10
-40.0
 20
-29.99999999999998
 30
0.0
 40
1.000000000000006
100
AcDbArc
 50
270.0
 51
0.0
  0
ARC
  5
1000011F
102
{ACAD_XDICTIONARY
360
10000120
102
}
330
1F
100
AcDbEntity
  8
MODELSKETCH_VISIBLE
100
AcDbCircle
 10
13.99999999999998
 20
46.00000000000001
 30
0.0
 40
1.000000000000009
100
AcDbArc
 50
269.9999999999994
 51
0.0
  0
ARC
  5
10000122
102
{ACAD_XDICTIONARY
360
10000123
102
}
330
1F
100
AcDbEntity
  8
MODELSKETCH_VISIBLE
100
AcDbCircle
 10
16.0
 20
46.0
 30
0.0
 40
1.00000000000001
100
AcDbArc
 50
90.00000000000063
 51
179.9999999999996
  0
ARC
  5
10000125
102
{ACAD_XDICTIONARY
360
10000126
102
}
330
1F
100
AcDbEntity
  8
MODELSKETCH_VISIBLE
100
AcDbCircle
 10
27.99999999999998
 20
6.000000000000026
 30
0.0
 40
2.000000000000013
100
AcDbArc
 50
180.0000000000005
 51
270.0
  0
ARC
  5
10000128
102
{ACAD_XDICTIONARY
360
10000129
102
}
330
1F
100
AcDbEntity
  8
MODELSKETCH_VISIBLE
100
AcDbCircle
 10
21.00000000000001
 20
-44.99999999999999
 30
0.0
 40
2.000000000000011
100
AcDbArc
 50
270.0
 51
0.0
  0
LINE
  5
1000012B
102
{ACAD_XDICTIONARY
360
1000012C
102
}
330
1F
100
AcDbEntity
  8
MODELSKETCH_VISIBLE
100
AcDbLine
 10
4.0
 20
-20.0
 30
0.0
 11
8.999999999999998
 21
-20.0
 31
0.0
  0
ARC
  5
1000012E
102
{ACAD_XDICTIONARY
360
1000012F
102
}
330
1F
100
AcDbEntity
  8
MODELSKETCH_VISIBLE
100
AcDbCircle
 10
-32.99999999999999
 20
-29.99999999999998
 30
0.0
 40
1.00000000000001
100
AcDbArc
 50
180.0000000000006
 51
270.0
  0
ARC
  5
10000131
102
{ACAD_XDICTIONARY
360
10000132
102
}
330
1F
100
AcDbEntity
  8
MODELSKETCH_VISIBLE
100
AcDbCircle
 10
-4.00000000000002
 20
45.00000000000001
 30
0.0
 40
2.00000000000001
100
AcDbArc
 50
0.0
 51
90.0
  0
ARC
  5
10000134
102
{ACAD_XDICTIONARY
360
10000135
102
}
330
1F
100
AcDbEntity
  8
MODELSKETCH_VISIBLE
100
AcDbCircle
 10
-44.99999999999999
 20
28.99999999999999
 30
0.0
 40
2.000000000000011
100
AcDbArc
 50
90.0
 51
179.9999999999997
  0
LINE
  5
10000137
102
{ACAD_XDICTIONARY
360
10000138
102
}
330
1F
100
AcDbEntity
  8
MODELSKETCH_VISIBLE
100
AcDbLine
 10
-39.99999999999998
 20
4.000000000000005
 30
0.0
 11
-44.99999999999998
 21
4.000000000000002
 31
0.0
  0
LINE
  5
1000013A
102
{ACAD_XDICTIONARY
360
1000013B
102
}
330
1F
100
AcDbEntity
  8
MODELSKETCH_VISIBLE
100
AcDbLine
 10
8.999999999999998
 20
-20.0
 30
0.0
 11
4.0
 21
-20.0
 31
0.0
  0
ARC
  5
1000013D
102
{ACAD_XDICTIONARY
360
1000013E
102
}
330
1F
100
AcDbEntity
  8
MODELSKETCH_VISIBLE
100
AcDbCircle
 10
14.0
 20
-45.99999999999999
 30
0.0
 40
1.000000000000015
100
AcDbArc
 50
0.0
 51
90.0
  0
LINE
  5
10000140
102
{ACAD_XDICTIONARY
360
10000141
102
}
330
1F
100
AcDbEntity
  8
MODELSKETCH_VISIBLE
100
AcDbLine
 10
32.99999999999998
 20
-30.99999999999999
 30
0.0
 11
27.99999999999999
 21
-30.99999999999999
 31
0.0
  0
ARC
  5
10000143
102
{ACAD_XDICTIONARY
360
10000144
102
}
330
1F
100
AcDbEntity
  8
MODELSKETCH_VISIBLE
100
AcDbCircle
 10
-11.00000000000002
 20
21.00000000000002
 30
0.0
 40
1.000000000000015
100
AcDbArc
 50
0.0
 51
90.0
  0
ARC
  5
10000146
102
{ACAD_XDICTIONARY
360
10000147
102
}
330
1F
100
AcDbEntity
  8
MODELSKETCH_VISIBLE
100
AcDbCircle
 10
10.99999999999998
 20
46.00000000000001
 30
0.0
 40
1.000000000000009
100
AcDbArc
 50
180.0
 51
270.0000000000007
  0
LINE
  5
10000149
102
{ACAD_XDICTIONARY
360
1000014A
102
}
330
1F
100
AcDbEntity
  8
MODELSKETCH_VISIBLE
100
AcDbLine
 10
11.00000000000001
 20
-22.0
 30
0.0
 11
13.99999999999999
 21
-22.0
 31
0.0
  0
LINE
  5
1000014C
102
{ACAD_XDICTIONARY
360
1000014D
102
}
330
1F
100
AcDbEntity
  8
MODELSKETCH_VISIBLE
100
AcDbLine
 10
-9.000000000000014
 20
47.00000000000001
 30
0.0
 11
-4.00000000000002
 21
47.00000000000001
 31
0.0
  0
ARC
  5
1000014F
102
{ACAD_XDICTIONARY
360
10000150
102
}
330
1F
100
AcDbEntity
  8
MODELSKETCH_VISIBLE
100
AcDbCircle
 10
34.99999999999998
 20
-4.999999999999987
 30
0.0
 40
1.000000000000015
100
AcDbArc
 50
180.0
 51
270.0
  0
LINE
  5
10000152
102
{ACAD_XDICTIONARY
360
10000153
102
}
330
1F
100
AcDbEntity
  8
MODELSKETCH_VISIBLE
100
AcDbLine
 10
-40.00000000000001
 20
-3.999999999999992
 30
0.0
 11
-45.00000000000001
 21
-3.999999999999995
 31
0.0
  0
LINE
  5
10000155
102
{ACAD_XDICTIONARY
360
10000156
102
}
330
1F
100
AcDbEntity
  8
MODELSKETCH_VISIBLE
100
AcDbLine
 10
-16.00000000000002
 20
-46.99999999999999
 30
0.0
 11
-21.00000000000002
 21
-46.99999999999999
 31
0.0
  0
ARC
  5
10000158
102
{ACAD_XDICTIONARY
360
10000159
102
}
330
1F
100
AcDbEntity
  8
MODELSKETCH_VISIBLE
100
AcDbCircle
 10
20.99999999999998
 20
45.0
 30
0.0
 40
2.000000000000009
100
AcDbArc
 50
0.0
 51
90.0
  0
ARC
  5
1000015B
102
{ACAD_XDICTIONARY
360
1000015C
102
}
330
1F
100
AcDbEntity
  8
MODELSKETCH_VISIBLE
100
AcDbCircle
 10
-16.00000000000003
 20
46.00000000000001
 30
0.0
 40
1.00000000000001
100
AcDbArc
 50
0.0
 51
89.99999999999939
  0
LINE
  5
1000015E
102
{ACAD_XDICTIONARY
360
1000015F
102
}
330
1F
100
AcDbEntity
  8
MODELSKETCH_VISIBLE
100
AcDbLine
 10
16.00000000000002
 20
-46.99999999999999
 30
0.0
 11
21.00000000000001
 21
-46.99999999999999
 31
0.0
  0
LINE
  5
10000161
102
{ACAD_XDICTIONARY
360
10000162
102
}
330
1F
100
AcDbEntity
  8
MODELSKETCH_VISIBLE
100
AcDbLine
 10
40.0
 20
-30.99999999999999
 30
0.0
 11
44.99999999999999
 21
-30.99999999999998
 31
0.0
  0
CIRCLE
  5
10000164
102
{ACAD_XDICTIONARY
360
10000165
102
}
330
1F
100
AcDbEntity
  8
MODELSKETCH_VISIBLE
100
AcDbCircle
 10
19.5
 20
11.5
 30
0.0
 40
1.750000000000002
  0
ARC
  5
10000167
102
{ACAD_XDICTIONARY
360
10000168
102
}
330
1F
100
AcDbEntity
  8
MODELSKETCH_VISIBLE
100
AcDbCircle
 10
37.99999999999999
 20
-30.0
 30
0.0
 40
1.000000000000016
100
AcDbArc
 50
0.0
 51
90.0000000000004
  0
ARC
  5
1000016A
102
{ACAD_XDICTIONARY
360
1000016B
102
}
330
1F
100
AcDbEntity
  8
MODELSKETCH_VISIBLE
100
AcDbCircle
 10
32.99999999999998
 20
-29.99999999999998
 30
0.0
 40
1.000000000000006
100
AcDbArc
 50
270.0
 51
0.0
  0
ARC
  5
1000016D
102
{ACAD_XDICTIONARY
360
1000016E
102
}
330
1F
100
AcDbEntity
  8
MODELSKETCH_VISIBLE
100
AcDbCircle
 10
39.99999999999999
 20
5.000000000000035
 30
0.0
 40
1.00000000000001
100
AcDbArc
 50
180.0000000000007
 51
270.0
  0
ARC
  5
10000170
102
{ACAD_XDICTIONARY
360
10000171
102
}
330
1F
100
AcDbEntity
  8
MODELSKETCH_VISIBLE
100
AcDbCircle
 10
8.999999999999991
 20
21.00000000000001
 30
0.0
 40
1.000000000000006
100
AcDbArc
 50
270.0000000000003
 51
0.0
  0
ARC
  5
10000173
102
{ACAD_XDICTIONARY
360
10000174
102
}
330
1F
100
AcDbEntity
  8
MODELSKETCH_VISIBLE
100
AcDbCircle
 10
32.99999999999997
 20
5.000000000000029
 30
0.0
 40
1.000000000000011
100
AcDbArc
 50
270.0000000000004
 51
0.0
  0
LINE
  5
10000176
102
{ACAD_XDICTIONARY
360
10000177
102
}
330
1F
100
AcDbEntity
  8
MODELSKETCH_VISIBLE
100
AcDbLine
 10
37.99999999999997
 20
6.000000000000024
 30
0.0
 11
34.99999999999999
 21
6.00000000000002
 31
0.0
  0
ARC
  5
10000179
102
{ACAD_XDICTIONARY
360
1000017A
102
}
330
1F
100
AcDbEntity
  8
MODELSKETCH_VISIBLE
100
AcDbCircle
 10
-9.000000000000005
 20
46.00000000000002
 30
0.0
 40
1.000000000000006
100
AcDbArc
 50
90.0000000000005
 51
180.0
  0
ARC
  5
1000017C
102
{ACAD_XDICTIONARY
360
1000017D
102
}
330
1F
100
AcDbEntity
  8
MODELSKETCH_VISIBLE
100
AcDbCircle
 10
-21.00000000000002
 20
-44.99999999999999
 30
0.0
 40
2.000000000000007
100
AcDbArc
 50
180.0000000000002
 51
269.9999999999999
  0
ARC
  5
1000017F
102
{ACAD_XDICTIONARY
360
10000180
102
}
330
1F
100
AcDbEntity
  8
MODELSKETCH_VISIBLE
100
AcDbCircle
 10
39.99999999999999
 20
-29.99999999999996
 30
0.0
 40
1.000000000000016
100
AcDbArc
 50
180.0000000000014
 51
270.0000000000004
  0
LINE
  5
10000182
102
{ACAD_XDICTIONARY
360
10000183
102
}
330
1F
100
AcDbEntity
  8
MODELSKETCH_VISIBLE
100
AcDbLine
 10
8.999999999999996
 20
20.0
 30
0.0
 11
3.999999999999996
 21
20.0
 31
0.0
  0
ARC
  5
10000185
102
{ACAD_XDICTIONARY
360
10000186
102
}
330
1F
100
AcDbEntity
  8
MODELSKETCH_VISIBLE
100
AcDbCircle
 10
32.99999999999996
 20
-5.000000000000003
 30
0.0
 40
1.00000000000001
100
AcDbArc
 50
0.0
 51
89.99999999999959
  0
ARC
  5
10000188
102
{ACAD_XDICTIONARY
360
10000189
102
}
330
1F
100
AcDbEntity
  8
MODELSKETCH_VISIBLE
100
AcDbCircle
 10
37.99999999999996
 20
-4.999999999999984
 30
0.0
 40
1.000000000000016
100
AcDbArc
 50
270.0
 51
0.0
  0
ARC
  5
1000018B
102
{ACAD_XDICTIONARY
360
1000018C
102
}
330
1F
100
AcDbEntity
  8
MODELSKETCH_VISIBLE
100
AcDbCircle
 10
-14.00000000000002
 20
46.00000000000001
 30
0.0
 40
1.000000000000009
100
AcDbArc
 50
180.0
 51
270.0000000000007
  0
ARC
  5
1000018E
102
{ACAD_XDICTIONARY
360
1000018F
102
}
330
1F
100
AcDbEntity
  8
MODELSKETCH_VISIBLE
100
AcDbCircle
 10
13.99999999999998
 20
-20.99999999999999
 30
0.0
 40
1.000000000000018
100
AcDbArc
 50
270.0000000000004
 51
0.0
  0
LINE
  5
10000191
102
{ACAD_XDICTIONARY
360
10000192
102
}
330
1F
100
AcDbEntity
  8
MODELSKETCH_VISIBLE
100
AcDbLine
 10
39.99999999999999
 20
4.000000000000021
 30
0.0
 11
44.99999999999999
 21
4.000000000000024
 31
0.0
  0
ARC
  5
10000194
102
{ACAD_XDICTIONARY
360
10000195
102
}
330
1F
100
AcDbEntity
  8
MODELSKETCH_VISIBLE
100
AcDbCircle
 10
-32.99999999999999
 20
-29.99999999999998
 30
0.0
 40
1.00000000000001
100
AcDbArc
 50
180.0000000000006
 51
270.0
  0
ARC
  5
10000197
102
{ACAD_XDICTIONARY
360
10000198
102
}
330
1F
100
AcDbEntity
  8
MODELSKETCH_VISIBLE
100
AcDbCircle
 10
-14.00000000000002
 20
-45.99999999999999
 30
0.0
 40
1.000000000000015
100
AcDbArc
 50
90.0
 51
180.0
  0
LINE
  5
1000019A
102
{ACAD_XDICTIONARY
360
1000019B
102
}
330
1F
100
AcDbEntity
  8
MODELSKETCH_VISIBLE
100
AcDbLine
 10
-9.000000000000032
 20
-19.99999999999998
 30
0.0
 11
-4.000000000000036
 21
-19.99999999999998
 31
0.0
  0
LINE
  5
1000019D
102
{ACAD_XDICTIONARY
360
1000019E
102
}
330
1F
100
AcDbEntity
  8
MODELSKETCH_VISIBLE
100
AcDbLine
 10
-16.00000000000004
 20
-19.99999999999999
 30
0.0
 11
-21.00000000000004
 21
-19.99999999999999
 31
0.0
  0
ARC
  5
100001A0
102
{ACAD_XDICTIONARY
360
100001A1
102
}
330
1F
100
AcDbEntity
  8
MODELSKETCH_VISIBLE
100
AcDbCircle
 10
-37.99999999999999
 20
-29.99999999999999
 30
0.0
 40
1.000000000000015
100
AcDbArc
 50
90.0
 51
180.0
  0
ARC
  5
100001A3
102
{ACAD_XDICTIONARY
360
100001A4
102
}
330
1F
100
AcDbEntity
  8
MODELSKETCH_VISIBLE
100
AcDbCircle
 10
-33.0
 20
-4.999999999999999
 30
0.0
 40
1.00000000000001
100
AcDbArc
 50
90.0000000000004
 51
179.9999999999993
  0
ARC
  5
100001A6
102
{ACAD_XDICTIONARY
360
100001A7
102
}
330
1F
100
AcDbEntity
  8
MODELSKETCH_VISIBLE
100
AcDbCircle
 10
-28.00000000000001
 20
-5.999999999999993
 30
0.0
 40
2.00000000000001
100
AcDbArc
 50
0.0
 51
90.0
  0
ARC
  5
100001A9
102
{ACAD_XDICTIONARY
360
100001AA
102
}
330
1F
100
AcDbEntity
  8
MODELSKETCH_VISIBLE
100
AcDbCircle
 10
-14.00000000000003
 20
-20.99999999999998
 30
0.0
 40
1.000000000000015
100
AcDbArc
 50
180.0
 51
270.0
  0
ARC
  5
100001AC
102
{ACAD_XDICTIONARY
360
100001AD
102
}
330
1F
100
AcDbEntity
  8
MODELSKETCH_VISIBLE
100
AcDbCircle
 10
-27.99999999999999
 20
29.0
 30
0.0
 40
2.000000000000007
100
AcDbArc
 50
0.0
 51
90.0000000000002
  0
ARC
  5
100001AF
102
{ACAD_XDICTIONARY
360
100001B0
102
}
330
1F
100
AcDbEntity
  8
MODELSKETCH_VISIBLE
100
AcDbCircle
 10
11.00000000000001
 20
-20.99999999999999
 30
0.0
 40
1.000000000000015
100
AcDbArc
 50
180.0
 51
270.0
  0
ARC
  5
100001B2
102
{ACAD_XDICTIONARY
360
100001B3
102
}
330
1F
100
AcDbEntity
  8
MODELSKETCH_VISIBLE
100
AcDbCircle
 10
-44.99999999999998
 20
6.000000000000007
 30
0.0
 40
2.00000000000001
100
AcDbArc
 50
180.0000000000003
 51
270.0
  0
ARC
  5
100001B5
102
{ACAD_XDICTIONARY
360
100001B6
102
}
330
1F
100
AcDbEntity
  8
MODELSKETCH_VISIBLE
100
AcDbCircle
 10
8.999999999999968
 20
46.0
 30
0.0
 40
1.00000000000001
100
AcDbArc
 50
0.0
 51
89.99999999999929
  0
ARC
  5
100001B8
102
{ACAD_XDICTIONARY
360
100001B9
102
}
330
1F
100
AcDbEntity
  8
MODELSKETCH_VISIBLE
100
AcDbCircle
 10
27.99999999999998
 20
-28.99999999999999
 30
0.0
 40
2.000000000000007
100
AcDbArc
 50
180.0000000000002
 51
270.0000000000001
  0
ARC
  5
100001BB
102
{ACAD_XDICTIONARY
360
100001BC
102
}
330
1F
100
AcDbEntity
  8
MODELSKETCH_VISIBLE
100
AcDbCircle
 10
-4.000000000000022
 20
-44.99999999999997
 30
0.0
 40
2.000000000000009
100
AcDbArc
 50
270.0
 51
0.0
  0
ARC
  5
100001BE
102
{ACAD_XDICTIONARY
360
100001BF
102
}
330
1F
100
AcDbEntity
  8
MODELSKETCH_VISIBLE
100
AcDbCircle
 10
21.0
 20
22.00000000000002
 30
0.0
 40
2.000000000000007
100
AcDbArc
 50
269.9999999999998
 51
0.0
  0
ARC
  5
100001C1
102
{ACAD_XDICTIONARY
360
100001C2
102
}
330
1F
100
AcDbEntity
  8
MODELSKETCH_VISIBLE
100
AcDbCircle
 10
37.99999999999996
 20
30.00000000000002
 30
0.0
 40
1.000000000000016
100
AcDbArc
 50
270.0
 51
0.0
  0
ARC
  5
100001C4
102
{ACAD_XDICTIONARY
360
100001C5
102
}
330
1F
100
AcDbEntity
  8
MODELSKETCH_VISIBLE
100
AcDbCircle
 10
48.0
 20
39.50000000000001
 30
0.0
 40
2.000000000000005
100
AcDbArc
 50
0.0
 51
90.0
  0
ARC
  5
100001C7
102
{ACAD_XDICTIONARY
360
100001C8
102
}
330
1F
100
AcDbEntity
  8
MODELSKETCH_VISIBLE
100
AcDbCircle
 10
-45.0
 20
-29.0
 30
0.0
 40
2.000000000000004
100
AcDbArc
 50
180.0
 51
270.0
  0
LINE
  5
100001CA
102
{ACAD_XDICTIONARY
360
100001CB
102
}
330
1F
100
AcDbEntity
  8
MODELSKETCH_VISIBLE
100
AcDbLine
 10
-11.00000000000002
 20
22.00000000000002
 30
0.0
 11
-14.0
 21
22.00000000000002
 31
0.0
  0
LINE
  5
100001CD
102
{ACAD_XDICTIONARY
360
100001CE
102
}
330
1F
100
AcDbEntity
  8
MODELSKETCH_VISIBLE
100
AcDbLine
 10
41.50000000000001
 20
-41.50000000000001
 30
0.0
 11
41.50000000000001
 21
-48.00000000000001
 31
0.0
  0
LINE
  5
100001D0
102
{ACAD_XDICTIONARY
360
100001D1
102
}
330
1F
100
AcDbEntity
  8
MODELSKETCH_VISIBLE
100
AcDbLine
 10
49.99999999999999
 20
39.50000000000002
 30
0.0
 11
50.00000000000001
 21
-39.49999999999999
 31
0.0
  0
LINE
  5
100001D3
102
{ACAD_XDICTIONARY
360
100001D4
102
}
330
1F
100
AcDbEntity
  8
MODELSKETCH_VISIBLE
100
AcDbLine
 10
-9.000000000000014
 20
-46.99999999999997
 30
0.0
 11
-4.000000000000022
 21
-46.99999999999997
 31
0.0
  0
ARC
  5
100001D6
102
{ACAD_XDICTIONARY
360
100001D7
102
}
330
1F
100
AcDbEntity
  8
MODELSKETCH_VISIBLE
100
AcDbCircle
 10
-35.00000000000002
 20
-4.999999999999984
 30
0.0
 40
1.000000000000016
100
AcDbArc
 50
270.0
 51
0.0
  0
ARC
  5
100001D9
102
{ACAD_XDICTIONARY
360
100001DA
102
}
330
1F
100
AcDbEntity
  8
MODELSKETCH_VISIBLE
100
AcDbCircle
 10
39.50000000000001
 20
48.00000000000001
 30
0.0
 40
1.999999999999998
100
AcDbArc
 50
0.0
 51
90.0000000000004
  0
LINE
  5
100001DC
102
{ACAD_XDICTIONARY
360
100001DD
102
}
330
1F
100
AcDbEntity
  8
MODELSKETCH_VISIBLE
100
AcDbLine
 10
-48.0
 20
41.5
 30
0.0
 11
-41.5
 21
41.5
 31
0.0
  0
LINE
  5
100001DF
102
{ACAD_XDICTIONARY
360
100001E0
102
}
330
1F
100
AcDbEntity
  8
MODELSKETCH_VISIBLE
100
AcDbLine
 10
-16.00000000000002
 20
47.00000000000001
 30
0.0
 11
-21.00000000000002
 21
47.00000000000001
 31
0.0
  0
ARC
  5
100001E2
102
{ACAD_XDICTIONARY
360
100001E3
102
}
330
1F
100
AcDbEntity
  8
MODELSKETCH_VISIBLE
100
AcDbCircle
 10
4.0
 20
-22.00000000000001
 30
0.0
 40
2.000000000000009
100
AcDbArc
 50
90.0
 51
179.9999999999998
  0
LINE
  5
100001E5
102
{ACAD_XDICTIONARY
360
100001E6
102
}
330
1F
100
AcDbEntity
  8
MODELSKETCH_VISIBLE
100
AcDbLine
 10
48.00000000000002
 20
-41.49999999999999
 30
0.0
 11
41.50000000000001
 21
-41.49999999999999
 31
0.0
  0
ARC
  5
100001E8
102
{ACAD_XDICTIONARY
360
100001E9
102
}
330
1F
100
AcDbEntity
  8
MODELSKETCH_VISIBLE
100
AcDbCircle
 10
48.00000000000004
 20
-39.49999999999998
 30
0.0
 40
2.000000000000002
100
AcDbArc
 50
269.9999999999996
 51
0.0
  0
LINE
  5
100001EB
102
{ACAD_XDICTIONARY
360
100001EC
102
}
330
1F
100
AcDbEntity
  8
MODELSKETCH_VISIBLE
100
AcDbLine
 10
39.99999999999997
 20
31.00000000000002
 30
0.0
 11
44.99999999999997
 21
31.00000000000002
 31
0.0
  0
LINE
  5
100001EE
102
{ACAD_XDICTIONARY
360
100001EF
102
}
330
1F
100
AcDbEntity
  8
MODELSKETCH_VISIBLE
100
AcDbLine
 10
-35.00000000000001
 20
-28.99999999999999
 30
0.0
 11
-37.99999999999999
 21
-28.99999999999999
 31
0.0
  0
LINE
  5
100001F1
102
{ACAD_XDICTIONARY
360
100001F2
102
}
330
1F
100
AcDbEntity
  8
MODELSKETCH_VISIBLE
100
AcDbLine
 10
39.50000000000002
 20
-49.99999999999999
 30
0.0
 11
-39.49999999999999
 21
-50.0
 31
0.0
  0
ARC
  5
100001F4
102
{ACAD_XDICTIONARY
360
100001F5
102
}
330
1F
100
AcDbEntity
  8
MODELSKETCH_VISIBLE
100
AcDbCircle
 10
-27.99999999999998
 20
6.000000000000018
 30
0.0
 40
2.000000000000008
100
AcDbArc
 50
270.0
 51
0.0
  0
LINE
  5
100001F7
102
{ACAD_XDICTIONARY
360
100001F8
102
}
330
1F
100
AcDbEntity
  8
MODELSKETCH_VISIBLE
100
AcDbLine
 10
-41.5
 20
41.5
 30
0.0
 11
-41.5
 21
48.0
 31
0.0
  0
ARC
  5
100001FA
102
{ACAD_XDICTIONARY
360
100001FB
102
}
330
1F
100
AcDbEntity
  8
MODELSKETCH_VISIBLE
100
AcDbCircle
 10
-32.99999999999996
 20
5.000000000000011
 30
0.0
 40
1.000000000000004
100
AcDbArc
 50
180.0
 51
269.9999999999996
  0
ARC
  5
100001FD
102
{ACAD_XDICTIONARY
360
100001FE
102
}
330
1F
100
AcDbEntity
  8
MODELSKETCH_VISIBLE
100
AcDbCircle
 10
39.50000000000004
 20
-47.99999999999999
 30
0.0
 40
2.000000000000009
100
AcDbArc
 50
269.9999999999996
 51
0.0
  0
ARC
  5
10000200
102
{ACAD_XDICTIONARY
360
10000201
102
}
330
1F
100
AcDbEntity
  8
MODELSKETCH_VISIBLE
100
AcDbCircle
 10
-39.99999999999999
 20
30.0
 30
0.0
 40
1.000000000000006
100
AcDbArc
 50
0.0
 51
90.0
  0
LINE
  5
10000203
102
{ACAD_XDICTIONARY
360
10000204
102
}
330
1F
100
AcDbEntity
  8
MODELSKETCH_VISIBLE
100
AcDbLine
 10
-49.99999999999997
 20
-39.50000000000001
 30
0.0
 11
-50.0
 21
39.50000000000001
 31
0.0
  0
LINE
  5
10000206
102
{ACAD_XDICTIONARY
360
10000207
102
}
330
1F
100
AcDbEntity
  8
MODELSKETCH_VISIBLE
100
AcDbLine
 10
15.99999999999999
 20
47.00000000000001
 30
0.0
 11
20.99999999999998
 21
47.00000000000001
 31
0.0
  0
LINE
  5
10000209
102
{ACAD_XDICTIONARY
360
1000020A
102
}
330
1F
100
AcDbEntity
  8
MODELSKETCH_VISIBLE
100
AcDbLine
 10
41.5
 20
41.50000000000001
 30
0.0
 11
41.5
 21
48.00000000000001
 31
0.0
  0
ARC
  5
1000020C
102
{ACAD_XDICTIONARY
360
1000020D
102
}
330
1F
100
AcDbEntity
  8
MODELSKETCH_VISIBLE
100
AcDbCircle
 10
-4.00000000000002
 20
45.00000000000001
 30
0.0
 40
2.00000000000001
100
AcDbArc
 50
0.0
 51
90.0
  0
ARC
  5
1000020F
102
{ACAD_XDICTIONARY
360
10000210
102
}
330
1F
100
AcDbEntity
  8
MODELSKETCH_VISIBLE
100
AcDbCircle
 10
-39.50000000000001
 20
-48.0
 30
0.0
 40
1.999999999999991
100
AcDbArc
 50
180.0000000000004
 51
270.0000000000004
  0
LINE
  5
10000212
102
{ACAD_XDICTIONARY
360
10000213
102
}
330
1F
100
AcDbEntity
  8
MODELSKETCH_VISIBLE
100
AcDbLine
 10
34.99999999999998
 20
29.00000000000002
 30
0.0
 11
37.99999999999996
 21
29.00000000000002
 31
0.0
  0
LINE
  5
10000215
102
{ACAD_XDICTIONARY
360
10000216
102
}
330
1F
100
AcDbEntity
  8
MODELSKETCH_VISIBLE
100
AcDbLine
 10
-39.5
 20
49.99999999999999
 30
0.0
 11
39.5
 21
49.99999999999999
 31
0.0
  0
ARC
  5
10000218
102
{ACAD_XDICTIONARY
360
10000219
102
}
330
1F
100
AcDbEntity
  8
MODELSKETCH_VISIBLE
100
AcDbCircle
 10
20.99999999999999
 20
-22.0
 30
0.0
 40
2.000000000000011
100
AcDbArc
 50
0.0
 51
89.9999999999998
  0
LINE
  5
1000021B
102
{ACAD_XDICTIONARY
360
1000021C
102
}
330
1F
100
AcDbEntity
  8
MODELSKETCH_VISIBLE
100
AcDbLine
 10
48.0
 20
41.5
 30
0.0
 11
41.5
 21
41.5
 31
0.0
  0
ARC
  5
1000021E
102
{ACAD_XDICTIONARY
360
1000021F
102
}
330
1F
100
AcDbEntity
  8
MODELSKETCH_VISIBLE
100
AcDbCircle
 10
27.99999999999997
 20
-5.999999999999997
 30
0.0
 40
2.000000000000008
100
AcDbArc
 50
90.0
 51
179.9999999999998
  0
ARC
  5
10000221
102
{ACAD_XDICTIONARY
360
10000222
102
}
330
1F
100
AcDbEntity
  8
MODELSKETCH_VISIBLE
100
AcDbCircle
 10
-47.99999999999999
 20
-39.49999999999999
 30
0.0
 40
2.000000000000002
100
AcDbArc
 50
180.0000000000004
 51
270.0
  0
ARC
  5
10000224
102
{ACAD_XDICTIONARY
360
10000225
102
}
330
1F
100
AcDbEntity
  8
MODELSKETCH_VISIBLE
100
AcDbCircle
 10
16.0
 20
46.0
 30
0.0
 40
1.00000000000001
100
AcDbArc
 50
90.00000000000063
 51
179.9999999999996
  0
LINE
  5
10000227
102
{ACAD_XDICTIONARY
360
10000228
102
}
330
1F
100
AcDbEntity
  8
MODELSKETCH_VISIBLE
100
AcDbLine
 10
-15.49999999999999
 20
13.0
 30
0.0
 11
-15.49999999999999
 21
11.5
 31
0.0
  0
ARC
  5
1000022A
102
{ACAD_XDICTIONARY
360
1000022B
102
}
330
1F
100
AcDbEntity
  8
MODELSKETCH_VISIBLE
100
AcDbCircle
 10
39.99999999999998
 20
30.00000000000001
 30
0.0
 40
1.00000000000001
100
AcDbArc
 50
90.0000000000004
 51
179.9999999999994
  0
LINE
  5
1000022D
102
{ACAD_XDICTIONARY
360
1000022E
102
}
330
1F
100
AcDbEntity
  8
MODELSKETCH_VISIBLE
100
AcDbLine
 10
-15.49999999999999
 20
-13.0
 30
0.0
 11
-15.49999999999999
 21
-11.5
 31
0.0
  0
LINE
  5
10000230
102
{ACAD_XDICTIONARY
360
10000231
102
}
330
1F
100
AcDbEntity
  8
MODELSKETCH_VISIBLE
100
AcDbLine
 10
-14.00000000000001
 20
45.00000000000001
 30
0.0
 11
-11.00000000000003
 21
45.00000000000001
 31
0.0
  0
LINE
  5
10000233
102
{ACAD_XDICTIONARY
360
10000234
102
}
330
1F
100
AcDbEntity
  8
MODELSKETCH_VISIBLE
100
AcDbLine
 10
-19.5
 20
7.5
 30
0.0
 11
-21.0
 21
7.5
 31
0.0
  0
ARC
  5
10000236
102
{ACAD_XDICTIONARY
360
10000237
102
}
330
1F
100
AcDbEntity
  8
MODELSKETCH_VISIBLE
100
AcDbCircle
 10
-11.00000000000005
 20
-20.99999999999998
 30
0.0
 40
1.000000000000015
100
AcDbArc
 50
270.0
 51
0.0
  0
ARC
  5
10000239
102
{ACAD_XDICTIONARY
360
1000023A
102
}
330
1F
100
AcDbEntity
  8
MODELSKETCH_VISIBLE
100
AcDbCircle
 10
-14.49999999999999
 20
-12.99999999999999
 30
0.0
 40
1.000000000000004
100
AcDbArc
 50
180.0000000000004
 51
270.0000000000002
  0
ARC
  5
1000023C
102
{ACAD_XDICTIONARY
360
1000023D
102
}
330
1F
100
AcDbEntity
  8
MODELSKETCH_VISIBLE
100
AcDbCircle
 10
-21.00000000000004
 20
-22.0
 30
0.0
 40
2.000000000000011
100
AcDbArc
 50
90.0
 51
179.9999999999997
  0
LINE
  5
1000023F
102
{ACAD_XDICTIONARY
360
10000240
102
}
330
1F
100
AcDbEntity
  8
MODELSKETCH_VISIBLE
100
AcDbLine
 10
19.5
 20
7.499999999999999
 30
0.0
 11
21.0
 21
7.499999999999999
 31
0.0
  0
LINE
  5
10000242
102
{ACAD_XDICTIONARY
360
10000243
102
}
330
1F
100
AcDbEntity
  8
MODELSKETCH_VISIBLE
100
AcDbLine
 10
-8.999999999999998
 20
20.00000000000001
 30
0.0
 11
-4.000000000000004
 21
20.00000000000002
 31
0.0
  0
ARC
  5
10000245
102
{ACAD_XDICTIONARY
360
10000246
102
}
330
1F
100
AcDbEntity
  8
MODELSKETCH_VISIBLE
100
AcDbCircle
 10
19.5
 20
11.5
 30
0.0
 40
3.999999999999998
100
AcDbArc
 50
179.9999999999999
 51
270.0
  0
ARC
  5
10000248
102
{ACAD_XDICTIONARY
360
10000249
102
}
330
1F
100
AcDbEntity
  8
MODELSKETCH_VISIBLE
100
AcDbCircle
 10
27.99999999999998
 20
6.000000000000026
 30
0.0
 40
2.000000000000013
100
AcDbArc
 50
180.0000000000005
 51
270.0
  0
LINE
  5
1000024B
102
{ACAD_XDICTIONARY
360
1000024C
102
}
330
1F
100
AcDbEntity
  8
MODELSKETCH_VISIBLE
100
AcDbLine
 10
15.49999999999999
 20
13.0
 30
0.0
 11
15.49999999999999
 21
11.5
 31
0.0
  0
LINE
  5
1000024E
102
{ACAD_XDICTIONARY
360
1000024F
102
}
330
1F
100
AcDbEntity
  8
MODELSKETCH_VISIBLE
100
AcDbLine
 10
-40.0
 20
-30.99999999999999
 30
0.0
 11
-45.0
 21
-30.99999999999999
 31
0.0
  0
ARC
  5
10000251
102
{ACAD_XDICTIONARY
360
10000252
102
}
330
1F
100
AcDbEntity
  8
MODELSKETCH_VISIBLE
100
AcDbCircle
 10
14.49999999999999
 20
13.0
 30
0.0
 40
1.000000000000003
100
AcDbArc
 50
0.0
 51
90.0
  0
LINE
  5
10000254
102
{ACAD_XDICTIONARY
360
10000255
102
}
330
1F
100
AcDbEntity
  8
MODELSKETCH_VISIBLE
100
AcDbLine
 10
34.99999999999998
 20
-5.999999999999988
 30
0.0
 11
37.99999999999996
 21
-5.999999999999987
 31
0.0
  0
LINE
  5
10000257
102
{ACAD_XDICTIONARY
360
10000258
102
}
330
1F
100
AcDbEntity
  8
MODELSKETCH_VISIBLE
100
AcDbLine
 10
-19.5
 20
-7.500000000000001
 30
0.0
 11
-20.99999999999999
 21
-7.500000000000002
 31
0.0
  0
ARC
  5
1000025A
102
{ACAD_XDICTIONARY
360
1000025B
102
}
330
1F
100
AcDbEntity
  8
MODELSKETCH_VISIBLE
100
AcDbCircle
 10
34.99999999999999
 20
-29.99999999999998
 30
0.0
 40
1.00000000000001
100
AcDbArc
 50
90.0
 51
180.0000000000006
  0
ARC
  5
1000025D
102
{ACAD_XDICTIONARY
360
1000025E
102
}
330
1F
100
AcDbEntity
  8
MODELSKETCH_VISIBLE
100
AcDbCircle
 10
-21.0
 20
-6.499999999999992
 30
0.0
 40
1.0
100
AcDbArc
 50
180.0000000000007
 51
270.0000000000002
  0
ARC
  5
10000260
102
{ACAD_XDICTIONARY
360
10000261
102
}
330
1F
100
AcDbEntity
  8
MODELSKETCH_VISIBLE
100
AcDbCircle
 10
-37.99999999999999
 20
30.00000000000002
 30
0.0
 40
1.00000000000002
100
AcDbArc
 50
180.0000000000006
 51
270.0
  0
ARC
  5
10000263
102
{ACAD_XDICTIONARY
360
10000264
102
}
330
1F
100
AcDbEntity
  8
MODELSKETCH_VISIBLE
100
AcDbCircle
 10
19.5
 20
-11.5
 30
0.0
 40
4.0
100
AcDbArc
 50
90.0
 51
180.0
  0
ARC
  5
10000266
102
{ACAD_XDICTIONARY
360
10000267
102
}
330
1F
100
AcDbEntity
  8
MODELSKETCH_VISIBLE
100
AcDbCircle
 10
8.999999999999991
 20
-21.0
 30
0.0
 40
1.000000000000008
100
AcDbArc
 50
0.0
 51
89.99999999999959
  0
ARC
  5
10000269
102
{ACAD_XDICTIONARY
360
1000026A
102
}
330
1F
100
AcDbEntity
  8
MODELSKETCH_VISIBLE
100
AcDbCircle
 10
21.0
 20
6.5
 30
0.0
 40
1.0
100
AcDbArc
 50
0.0
 51
90.0
  0
ARC
  5
1000026C
102
{ACAD_XDICTIONARY
360
1000026D
102
}
330
1F
100
AcDbEntity
  8
MODELSKETCH_VISIBLE
100
AcDbCircle
 10
37.99999999999997
 20
5.00000000000002
 30
0.0
 40
1.000000000000016
100
AcDbArc
 50
0.0
 51
90.0
  0
ARC
  5
1000026F
102
{ACAD_XDICTIONARY
360
10000270
102
}
330
1F
100
AcDbEntity
  8
MODELSKETCH_VISIBLE
100
AcDbCircle
 10
21.0
 20
-6.499999999999991
 30
0.0
 40
1.0
100
AcDbArc
 50
270.0000000000002
 51
0.0
  0
ARC
  5
10000272
102
{ACAD_XDICTIONARY
360
10000273
102
}
330
1F
100
AcDbEntity
  8
MODELSKETCH_VISIBLE
100
AcDbCircle
 10
-8.999999999999995
 20
21.00000000000002
 30
0.0
 40
1.000000000000008
100
AcDbArc
 50
180.0000000000006
 51
269.9999999999998
  0
LINE
  5
10000275
102
{ACAD_XDICTIONARY
360
10000276
102
}
330
1F
100
AcDbEntity
  8
MODELSKETCH_VISIBLE
100
AcDbLine
 10
19.5
 20
-7.499999999999993
 30
0.0
 11
21.0
 21
-7.499999999999993
 31
0.0
  0
ARC
  5
10000278
102
{ACAD_XDICTIONARY
360
10000279
102
}
330
1F
100
AcDbEntity
  8
MODELSKETCH_VISIBLE
100
AcDbCircle
 10
-35.00000000000001
 20
-29.99999999999999
 30
0.0
 40
1.000000000000016
100
AcDbArc
 50
0.0
 51
90.0
  0
LINE
  5
1000027B
102
{ACAD_XDICTIONARY
360
1000027C
102
}
330
1F
100
AcDbEntity
  8
MODELSKETCH_VISIBLE
100
AcDbLine
 10
-14.49999999999999
 20
-14.0
 30
0.0
 11
14.5
 21
-14.0
 31
0.0
  0
LINE
  5
1000027E
102
{ACAD_XDICTIONARY
360
1000027F
102
}
330
1F
100
AcDbEntity
  8
MODELSKETCH_VISIBLE
100
AcDbLine
 10
16.0
 20
-19.99999999999999
 30
0.0
 11
21.0
 21
-19.99999999999999
 31
0.0
  0
ARC
  5
10000281
102
{ACAD_XDICTIONARY
360
10000282
102
}
330
1F
100
AcDbEntity
  8
MODELSKETCH_VISIBLE
100
AcDbCircle
 10
-14.49999999999999
 20
13.0
 30
0.0
 40
1.000000000000003
100
AcDbArc
 50
90.0
 51
180.0
  0
LINE
  5
10000284
102
{ACAD_XDICTIONARY
360
10000285
102
}
330
1F
100
AcDbEntity
  8
MODELSKETCH_VISIBLE
100
AcDbLine
 10
13.99999999999998
 20
22.00000000000001
 30
0.0
 11
11.0
 21
22.00000000000001
 31
0.0
  0
LINE
  5
10000287
102
{ACAD_XDICTIONARY
360
10000288
102
}
330
1F
100
AcDbEntity
  8
MODELSKETCH_VISIBLE
100
AcDbLine
 10
15.49999999999999
 20
-12.99999999999999
 30
0.0
 11
15.49999999999999
 21
-11.5
 31
0.0
  0
ARC
  5
1000028A
102
{ACAD_XDICTIONARY
360
1000028B
102
}
330
1F
100
AcDbEntity
  8
MODELSKETCH_VISIBLE
100
AcDbCircle
 10
-16.00000000000005
 20
-20.99999999999999
 30
0.0
 40
1.000000000000008
100
AcDbArc
 50
0.0
 51
89.99999999999959
  0
ARC
  5
1000028D
102
{ACAD_XDICTIONARY
360
1000028E
102
}
330
1F
100
AcDbEntity
  8
MODELSKETCH_VISIBLE
100
AcDbCircle
 10
-21.0
 20
6.5
 30
0.0
 40
1.0
100
AcDbArc
 50
90.0
 51
180.0
  0
LINE
  5
10000290
102
{ACAD_XDICTIONARY
360
10000291
102
}
330
1F
100
AcDbEntity
  8
MODELSKETCH_VISIBLE
100
AcDbLine
 10
14.0
 20
-45.0
 30
0.0
 11
11.00000000000002
 21
-45.0
 31
0.0
  0
ARC
  5
10000293
102
{ACAD_XDICTIONARY
360
10000294
102
}
330
1F
100
AcDbEntity
  8
MODELSKETCH_VISIBLE
100
AcDbCircle
 10
14.49999999999999
 20
-12.99999999999999
 30
0.0
 40
1.000000000000004
100
AcDbArc
 50
270.0
 51
0.0
  0
LINE
  5
10000296
102
{ACAD_XDICTIONARY
360
10000297
102
}
330
1F
100
AcDbEntity
  8
MODELSKETCH_VISIBLE
100
AcDbLine
 10
-33.00000000000001
 20
-3.999999999999987
 30
0.0
 11
-28.00000000000001
 21
-3.999999999999985
 31
0.0
  0
ARC
  5
10000299
102
{ACAD_XDICTIONARY
360
1000029A
102
}
330
1F
100
AcDbEntity
  8
MODELSKETCH_VISIBLE
100
AcDbCircle
 10
-19.5
 20
11.5
 30
0.0
 40
3.999999999999998
100
AcDbArc
 50
270.0
 51
0.0
  0
ARC
  5
1000029C
102
{ACAD_XDICTIONARY
360
1000029D
102
}
330
1F
100
AcDbEntity
  8
MODELSKETCH_VISIBLE
100
AcDbCircle
 10
-14.0
 20
21.00000000000001
 30
0.0
 40
1.000000000000016
100
AcDbArc
 50
90.0
 51
179.9999999999998
  0
ARC
  5
1000029F
102
{ACAD_XDICTIONARY
360
100002A0
102
}
330
1F
100
AcDbEntity
  8
MODELSKETCH_VISIBLE
100
AcDbCircle
 10
-39.5
 20
48.0
 30
0.0
 40
1.999999999999995
100
AcDbArc
 50
90.0
 51
180.0
  0
LINE
  5
100002A2
102
{ACAD_XDICTIONARY
360
100002A3
102
}
330
1F
100
AcDbEntity
  8
MODELSKETCH_VISIBLE
100
AcDbLine
 10
-32.99999999999997
 20
4.000000000000009
 30
0.0
 11
-27.99999999999998
 21
4.000000000000012
 31
0.0
  0
LINE
  5
100002A5
102
{ACAD_XDICTIONARY
360
100002A6
102
}
330
1F
100
AcDbEntity
  8
MODELSKETCH_VISIBLE
100
AcDbLine
 10
-41.5
 20
-41.5
 30
0.0
 11
-41.5
 21
-48.00000000000001
 31
0.0
  0
ARC
  5
100002A8
102
{ACAD_XDICTIONARY
360
100002A9
102
}
330
1F
100
AcDbEntity
  8
MODELSKETCH_VISIBLE
100
AcDbCircle
 10
16.00000000000001
 20
-21.0
 30
0.0
 40
1.00000000000001
100
AcDbArc
 50
90.00000000000063
 51
179.9999999999996
  0
ARC
  5
100002AB
102
{ACAD_XDICTIONARY
360
100002AC
102
}
330
1F
100
AcDbEntity
  8
MODELSKETCH_VISIBLE
100
AcDbCircle
 10
-48.0
 20
39.49999999999999
 30
0.0
 40
1.999999999999998
100
AcDbArc
 50
90.0
 51
179.9999999999996
  0
ARC
  5
100002AE
102
{ACAD_XDICTIONARY
360
100002AF
102
}
330
1F
100
AcDbEntity
  8
MODELSKETCH_VISIBLE
100
AcDbCircle
 10
44.99999999999999
 20
-28.99999999999998
 30
0.0
 40
2.000000000000011
100
AcDbArc
 50
270.0
 51
0.0
  0
LINE
  5
100002B1
102
{ACAD_XDICTIONARY
360
100002B2
102
}
330
1F
100
AcDbEntity
  8
MODELSKETCH_VISIBLE
100
AcDbLine
 10
-47.99999999999999
 20
-41.5
 30
0.0
 11
-41.49999999999999
 21
-41.5
 31
0.0
  0
ARC
  5
100002B4
102
{ACAD_XDICTIONARY
360
100002B5
102
}
330
1F
100
AcDbEntity
  8
MODELSKETCH_VISIBLE
100
AcDbCircle
 10
3.999999999999993
 20
22.0
 30
0.0
 40
2.000000000000007
100
AcDbArc
 50
180.0000000000003
 51
270.0000000000001
  0
LINE
  5
100002B7
102
{ACAD_XDICTIONARY
360
100002B8
102
}
330
1F
100
AcDbEntity
  8
MODELSKETCH_VISIBLE
100
AcDbLine
 10
22.0
 20
6.499999999999999
 30
0.0
 11
22.0
 21
-6.499999999999991
 31
0.0
  0
ARC
  5
100002BA
102
{ACAD_XDICTIONARY
360
100002BB
102
}
330
1F
100
AcDbEntity
  8
MODELSKETCH_VISIBLE
100
AcDbCircle
 10
16.00000000000001
 20
21.00000000000001
 30
0.0
 40
1.00000000000001
100
AcDbArc
 50
180.0000000000006
 51
269.9999999999996
  0
LINE
  5
100002BD
102
{ACAD_XDICTIONARY
360
100002BE
102
}
330
1F
100
AcDbEntity
  8
MODELSKETCH_VISIBLE
100
AcDbLine
 10
-22.0
 20
-6.500000000000004
 30
0.0
 11
-22.0
 21
6.5
 31
0.0
  0
ARC
  5
100002C0
102
{ACAD_XDICTIONARY
360
100002C1
102
}
330
1F
100
AcDbEntity
  8
MODELSKETCH_VISIBLE
100
AcDbCircle
 10
-16.00000000000002
 20
21.00000000000002
 30
0.0
 40
1.000000000000011
100
AcDbArc
 50
270.0000000000006
 51
0.0
  0
LINE
  5
100002C3
102
{ACAD_XDICTIONARY
360
100002C4
102
}
330
1F
100
AcDbEntity
  8
MODELSKETCH_VISIBLE
100
AcDbLine
 10
47.00000000000001
 20
-28.99999999999999
 30
0.0
 11
46.99999999999999
 21
-5.999999999999981
 31
0.0
  0
ARC
  5
100002C6
102
{ACAD_XDICTIONARY
360
100002C7
102
}
330
1F
100
AcDbEntity
  8
MODELSKETCH_VISIBLE
100
AcDbCircle
 10
-11.00000000000002
 20
46.00000000000001
 30
0.0
 40
1.000000000000009
100
AcDbArc
 50
269.9999999999993
 51
0.0
  0
LINE
  5
100002C9
102
{ACAD_XDICTIONARY
360
100002CA
102
}
330
1F
100
AcDbEntity
  8
MODELSKETCH_VISIBLE
100
AcDbLine
 10
20.99999999999999
 20
20.00000000000001
 30
0.0
 11
16.0
 21
20.0
 31
0.0
  0
ARC
  5
100002CC
102
{ACAD_XDICTIONARY
360
100002CD
102
}
330
1F
100
AcDbEntity
  8
MODELSKETCH_VISIBLE
100
AcDbCircle
 10
-16.00000000000004
 20
-45.99999999999997
 30
0.0
 40
1.00000000000001
100
AcDbArc
 50
270.0000000000006
 51
0.0
  0
LINE
  5
100002CF
102
{ACAD_XDICTIONARY
360
100002D0
102
}
330
1F
100
AcDbEntity
  8
MODELSKETCH_VISIBLE
100
AcDbLine
 10
27.99999999999997
 20
-3.999999999999995
 30
0.0
 11
32.99999999999996
 21
-3.999999999999992
 31
0.0
  0
ARC
  5
100002D2
102
{ACAD_XDICTIONARY
360
100002D3
102
}
330
1F
100
AcDbEntity
  8
MODELSKETCH_VISIBLE
100
AcDbCircle
 10
-37.99999999999997
 20
5.000000000000004
 30
0.0
 40
1.000000000000015
100
AcDbArc
 50
90.0
 51
180.0
  0
LINE
  5
100002D5
102
{ACAD_XDICTIONARY
360
100002D6
102
}
330
1F
100
AcDbEntity
  8
MODELSKETCH_VISIBLE
100
AcDbLine
 10
-2.000000000000013
 20
-44.99999999999999
 30
0.0
 11
-2.000000000000028
 21
-21.99999999999998
 31
0.0
  0
ARC
  5
100002D8
102
{ACAD_XDICTIONARY
360
100002D9
102
}
330
1F
100
AcDbEntity
  8
MODELSKETCH_VISIBLE
100
AcDbCircle
 10
-4.00000000000003
 20
-21.99999999999999
 30
0.0
 40
2.000000000000007
100
AcDbArc
 50
0.0
 51
90.0000000000002
  0
LINE
  5
100002DB
102
{ACAD_XDICTIONARY
360
100002DC
102
}
330
1F
100
AcDbEntity
  8
MODELSKETCH_VISIBLE
100
AcDbLine
 10
25.99999999999997
 20
-5.999999999999991
 30
0.0
 11
25.99999999999998
 21
-29.0
 31
0.0
  0
ARC
  5
100002DE
102
{ACAD_XDICTIONARY
360
100002DF
102
}
330
1F
100
AcDbEntity
  8
MODELSKETCH_VISIBLE
100
AcDbCircle
 10
-9.000000000000028
 20
-20.99999999999999
 30
0.0
 40
1.000000000000004
100
AcDbArc
 50
90.0000000000002
 51
179.9999999999998
  0
LINE
  5
100002E1
102
{ACAD_XDICTIONARY
360
100002E2
102
}
330
1F
100
AcDbEntity
  8
MODELSKETCH_VISIBLE
100
AcDbLine
 10
-47.00000000000001
 20
-5.999999999999991
 30
0.0
 11
-47.00000000000001
 21
-29.0
 31
0.0
  0
ARC
  5
100002E4
102
{ACAD_XDICTIONARY
360
100002E5
102
}
330
1F
100
AcDbEntity
  8
MODELSKETCH_VISIBLE
100
AcDbCircle
 10
11.0
 20
21.0
 30
0.0
 40
1.000000000000013
100
AcDbArc
 50
90.0
 51
180.0000000000002
  0
LINE
  5
100002E7
102
{ACAD_XDICTIONARY
360
100002E8
102
}
330
1F
100
AcDbEntity
  8
MODELSKETCH_VISIBLE
100
AcDbLine
 10
25.99999999999996
 20
29.00000000000001
 30
0.0
 11
25.99999999999998
 21
6.000000000000009
 31
0.0
  0
LINE
  5
100002EA
102
{ACAD_XDICTIONARY
360
100002EB
102
}
330
1F
100
AcDbEntity
  8
MODELSKETCH_VISIBLE
100
AcDbLine
 10
-38.00000000000001
 20
-5.999999999999988
 30
0.0
 11
-35.00000000000002
 21
-5.999999999999987
 31
0.0
  0
LINE
  5
100002ED
102
{ACAD_XDICTIONARY
360
100002EE
102
}
330
1F
100
AcDbEntity
  8
MODELSKETCH_VISIBLE
100
AcDbLine
 10
46.99999999999999
 20
6.000000000000024
 30
0.0
 11
46.99999999999998
 21
29.00000000000003
 31
0.0
  0
CIRCLE
  5
100002F0
102
{ACAD_XDICTIONARY
360
100002F1
102
}
330
1F
100
AcDbEntity
  8
MODELSKETCH_VISIBLE
100
AcDbCircle
 10
19.5
 20
-11.5
 30
0.0
 40
1.750000000000002
  0
LINE
  5
100002F3
102
{ACAD_XDICTIONARY
360
100002F4
102
}
330
1F
100
AcDbEntity
  8
MODELSKETCH_VISIBLE
100
AcDbLine
 10
-32.99999999999999
 20
-30.99999999999999
 30
0.0
 11
-28.0
 21
-30.99999999999998
 31
0.0
  0
LINE
  5
100002F6
102
{ACAD_XDICTIONARY
360
100002F7
102
}
330
1F
100
AcDbEntity
  8
MODELSKETCH_VISIBLE
100
AcDbLine
 10
1.999999999999997
 20
-22.0
 30
0.0
 11
2.000000000000005
 21
-45.00000000000001
 31
0.0
  0
ARC
  5
100002F9
102
{ACAD_XDICTIONARY
360
100002FA
102
}
330
1F
100
AcDbEntity
  8
MODELSKETCH_VISIBLE
100
AcDbCircle
 10
-44.99999999999999
 20
28.99999999999999
 30
0.0
 40
2.000000000000011
100
AcDbArc
 50
90.0
 51
179.9999999999997
  0
LINE
  5
100002FC
102
{ACAD_XDICTIONARY
360
100002FD
102
}
330
1F
100
AcDbEntity
  8
MODELSKETCH_VISIBLE
100
AcDbLine
 10
-46.99999999999999
 20
29.0
 30
0.0
 11
-46.99999999999999
 21
5.999999999999995
 31
0.0
  0
LINE
  5
100002FF
102
{ACAD_XDICTIONARY
360
10000300
102
}
330
1F
100
AcDbEntity
  8
MODELSKETCH_VISIBLE
100
AcDbLine
 10
-14.00000000000003
 20
-21.99999999999998
 30
0.0
 11
-11.00000000000005
 21
-21.99999999999998
 31
0.0
  0
LINE
  5
10000302
102
{ACAD_XDICTIONARY
360
10000303
102
}
330
1F
100
AcDbEntity
  8
MODELSKETCH_VISIBLE
100
AcDbLine
 10
3.999999999999983
 20
47.0
 30
0.0
 11
8.99999999999998
 21
47.0
 31
0.0
  0
ARC
  5
10000305
102
{ACAD_XDICTIONARY
360
10000306
102
}
330
1F
100
AcDbEntity
  8
MODELSKETCH_VISIBLE
100
AcDbCircle
 10
44.99999999999997
 20
-5.999999999999995
 30
0.0
 40
2.000000000000011
100
AcDbArc
 50
0.0
 51
90.0
  0
LINE
  5
10000308
102
{ACAD_XDICTIONARY
360
10000309
102
}
330
1F
100
AcDbEntity
  8
MODELSKETCH_VISIBLE
100
AcDbLine
 10
-25.99999999999999
 20
-28.99999999999999
 30
0.0
 11
-26.0
 21
-5.999999999999981
 31
0.0
  0
LINE
  5
1000030B
102
{ACAD_XDICTIONARY
360
1000030C
102
}
330
1F
100
AcDbEntity
  8
MODELSKETCH_VISIBLE
100
AcDbLine
 10
8.99999999999998
 20
47.0
 30
0.0
 11
3.999999999999983
 21
47.0
 31
0.0
  0
LINE
  5
1000030E
102
{ACAD_XDICTIONARY
360
1000030F
102
}
330
1F
100
AcDbEntity
  8
MODELSKETCH_VISIBLE
100
AcDbLine
 10
1.999999999999979
 20
45.0
 30
0.0
 11
1.999999999999988
 21
21.99999999999999
 31
0.0
  0
ARC
  5
10000311
102
{ACAD_XDICTIONARY
360
10000312
102
}
330
1F
100
AcDbEntity
  8
MODELSKETCH_VISIBLE
100
AcDbCircle
 10
-38.00000000000001
 20
-4.999999999999987
 30
0.0
 40
1.000000000000015
100
AcDbArc
 50
180.0
 51
270.0
  0
LINE
  5
10000314
102
{ACAD_XDICTIONARY
360
10000315
102
}
330
1F
100
AcDbEntity
  8
MODELSKETCH_VISIBLE
100
AcDbLine
 10
-25.99999999999997
 20
6.000000000000012
 30
0.0
 11
-25.99999999999998
 21
29.00000000000001
 31
0.0
  0
ARC
  5
10000317
102
{ACAD_XDICTIONARY
360
10000318
102
}
330
1F
100
AcDbEntity
  8
MODELSKETCH_VISIBLE
100
AcDbCircle
 10
44.99999999999998
 20
29.00000000000003
 30
0.0
 40
2.0
100
AcDbArc
 50
0.0
 51
90.0000000000002
  0
LINE
  5
1000031A
102
{ACAD_XDICTIONARY
360
1000031B
102
}
330
1F
100
AcDbEntity
  8
MODELSKETCH_VISIBLE
100
AcDbLine
 10
-23.00000000000004
 20
-21.99999999999999
 30
0.0
 11
-23.00000000000003
 21
-45.0
 31
0.0
  0
ARC
  5
1000031D
102
{ACAD_XDICTIONARY
360
1000031E
102
}
330
1F
100
AcDbEntity
  8
MODELSKETCH_VISIBLE
100
AcDbCircle
 10
-11.00000000000002
 20
-45.99999999999997
 30
0.0
 40
1.000000000000009
100
AcDbArc
 50
0.0
 51
90.00000000000072
  0
LINE
  5
10000320
102
{ACAD_XDICTIONARY
360
10000321
102
}
330
1F
100
AcDbEntity
  8
MODELSKETCH_VISIBLE
100
AcDbLine
 10
-23.00000000000002
 20
45.00000000000001
 30
0.0
 11
-23.00000000000001
 21
22.0
 31
0.0
  0
ARC
  5
10000323
102
{ACAD_XDICTIONARY
360
10000324
102
}
330
1F
100
AcDbEntity
  8
MODELSKETCH_VISIBLE
100
AcDbCircle
 10
39.99999999999998
 20
-4.999999999999988
 30
0.0
 40
1.000000000000005
100
AcDbArc
 50
90.0000000000004
 51
180.0
  0
LINE
  5
10000326
102
{ACAD_XDICTIONARY
360
10000327
102
}
330
1F
100
AcDbEntity
  8
MODELSKETCH_VISIBLE
100
AcDbLine
 10
23.00000000000001
 20
22.00000000000001
 30
0.0
 11
22.99999999999999
 21
45.00000000000001
 31
0.0
  0
LINE
  5
10000329
102
{ACAD_XDICTIONARY
360
1000032A
102
}
330
1F
100
AcDbEntity
  8
MODELSKETCH_VISIBLE
100
AcDbLine
 10
-16.00000000000001
 20
20.00000000000001
 30
0.0
 11
-21.0
 21
20.00000000000001
 31
0.0
  0
LINE
  5
1000032C
102
{ACAD_XDICTIONARY
360
1000032D
102
}
330
1F
100
AcDbEntity
  8
MODELSKETCH_VISIBLE
100
AcDbLine
 10
27.99999999999997
 20
31.00000000000001
 30
0.0
 11
32.99999999999996
 21
31.00000000000001
 31
0.0
  0
ARC
  5
1000032F
102
{ACAD_XDICTIONARY
360
10000330
102
}
330
1F
100
AcDbEntity
  8
MODELSKETCH_VISIBLE
100
AcDbCircle
 10
-40.0
 20
-29.99999999999998
 30
0.0
 40
1.000000000000006
100
AcDbArc
 50
270.0
 51
0.0
  0
LINE
  5
10000332
102
{ACAD_XDICTIONARY
360
10000333
102
}
330
1F
100
AcDbEntity
  8
MODELSKETCH_VISIBLE
100
AcDbLine
 10
-28.0
 20
-30.99999999999998
 30
0.0
 11
-32.99999999999999
 21
-30.99999999999999
 31
0.0
  0
ARC
  5
10000335
102
{ACAD_XDICTIONARY
360
10000336
102
}
330
1F
100
AcDbEntity
  8
MODELSKETCH_VISIBLE
100
AcDbCircle
 10
-40.00000000000002
 20
-5.000000000000003
 30
0.0
 40
1.00000000000001
100
AcDbArc
 50
0.0
 51
89.99999999999959
  0
LINE
  5
10000338
102
{ACAD_XDICTIONARY
360
10000339
102
}
330
1F
100
AcDbEntity
  8
MODELSKETCH_VISIBLE
100
AcDbLine
 10
23.00000000000002
 20
-45.0
 30
0.0
 11
23.00000000000001
 21
-21.99999999999999
 31
0.0
  0
ARC
  5
1000033B
102
{ACAD_XDICTIONARY
360
1000033C
102
}
330
1F
100
AcDbEntity
  8
MODELSKETCH_VISIBLE
100
AcDbCircle
 10
-32.99999999999999
 20
30.0
 30
0.0
 40
1.000000000000006
100
AcDbArc
 50
90.0
 51
179.9999999999994
  0
LINE
  5
1000033E
102
{ACAD_XDICTIONARY
360
1000033F
102
}
330
1F
100
AcDbEntity
  8
MODELSKETCH_VISIBLE
100
AcDbLine
 10
-1.999999999999996
 20
22.00000000000002
 30
0.0
 11
-2.000000000000011
 21
45.00000000000003
 31
0.0
  0
LINE
  5
10000341
102
{ACAD_XDICTIONARY
360
10000342
102
}
330
1F
100
AcDbEntity
  8
MODELSKETCH_VISIBLE
100
AcDbLine
 10
39.99999999999997
 20
-3.999999999999987
 30
0.0
 11
44.99999999999997
 21
-3.999999999999985
 31
0.0
  0
LINE
  5
10000344
102
{ACAD_XDICTIONARY
360
10000345
102
}
330
1F
100
AcDbEntity
  8
MODELSKETCH_VISIBLE
100
AcDbLine
 10
22.0
 20
-6.499999999999991
 30
0.0
 11
22.0
 21
6.499999999999999
 31
0.0
  0
ARC
  5
10000347
102
{ACAD_XDICTIONARY
360
10000348
102
}
330
1F
100
AcDbEntity
  8
MODELSKETCH_VISIBLE
100
AcDbCircle
 10
-4.000000000000004
 20
22.00000000000002
 30
0.0
 40
2.000000000000009
100
AcDbArc
 50
270.0
 51
0.0
  0
ARC
  5
1000034A
102
{ACAD_XDICTIONARY
360
1000034B
102
}
330
1F
100
AcDbEntity
  8
MODELSKETCH_VISIBLE
100
AcDbCircle
 10
19.5
 20
-11.5
 30
0.0
 40
4.0
100
AcDbArc
 50
90.0
 51
180.0
  0
ARC
  5
1000034D
102
{ACAD_XDICTIONARY
360
1000034E
102
}
330
1F
100
AcDbEntity
  8
MODELSKETCH_VISIBLE
100
AcDbCircle
 10
-34.99999999999999
 20
5.000000000000008
 30
0.0
 40
1.000000000000016
100
AcDbArc
 50
0.0
 51
90.0
  0
LINE
  5
10000350
102
{ACAD_XDICTIONARY
360
10000351
102
}
330
1F
100
AcDbEntity
  8
MODELSKETCH_VISIBLE
100
AcDbLine
 10
14.5
 20
-14.0
 30
0.0
 11
-14.49999999999999
 21
-14.0
 31
0.0
  0
LINE
  5
10000353
102
{ACAD_XDICTIONARY
360
10000354
102
}
330
1F
100
AcDbEntity
  8
MODELSKETCH_VISIBLE
100
AcDbLine
 10
-32.99999999999999
 20
31.00000000000001
 30
0.0
 11
-27.99999999999999
 21
31.00000000000001
 31
0.0
  0
LINE
  5
10000356
102
{ACAD_XDICTIONARY
360
10000357
102
}
330
1F
100
AcDbEntity
  8
MODELSKETCH_VISIBLE
100
AcDbLine
 10
-22.0
 20
6.5
 30
0.0
 11
-22.0
 21
-6.500000000000004
 31
0.0
  0
ARC
  5
10000359
102
{ACAD_XDICTIONARY
360
1000035A
102
}
330
1F
100
AcDbEntity
  8
MODELSKETCH_VISIBLE
100
AcDbCircle
 10
44.99999999999999
 20
6.000000000000035
 30
0.0
 40
2.000000000000011
100
AcDbArc
 50
270.0
 51
0.0
  0
LINE
  5
1000035C
102
{ACAD_XDICTIONARY
360
1000035D
102
}
330
1F
100
AcDbEntity
  8
MODELSKETCH_VISIBLE
100
AcDbLine
 10
-39.5
 20
49.99999999999999
 30
0.0
 11
39.5
 21
49.99999999999999
 31
0.0
  0
LINE
  5
1000035F
102
{ACAD_XDICTIONARY
360
10000360
102
}
330
1F
100
AcDbEntity
  8
MODELSKETCH_VISIBLE
100
AcDbLine
 10
-11.00000000000003
 20
-44.99999999999999
 30
0.0
 11
-14.00000000000002
 21
-44.99999999999999
 31
0.0
  0
LINE
  5
10000362
102
{ACAD_XDICTIONARY
360
10000363
102
}
330
1F
100
AcDbEntity
  8
MODELSKETCH_VISIBLE
100
AcDbLine
 10
-49.99999999999997
 20
-39.50000000000001
 30
0.0
 11
-50.0
 21
39.50000000000001
 31
0.0
  0
ARC
  5
10000365
102
{ACAD_XDICTIONARY
360
10000366
102
}
330
1F
100
AcDbEntity
  8
MODELSKETCH_VISIBLE
100
AcDbCircle
 10
34.99999999999999
 20
5.000000000000028
 30
0.0
 40
1.000000000000009
100
AcDbArc
 50
90.0
 51
180.0000000000007
  0
LINE
  5
10000368
102
{ACAD_XDICTIONARY
360
10000369
102
}
330
1F
100
AcDbEntity
  8
MODELSKETCH_VISIBLE
100
AcDbLine
 10
39.50000000000002
 20
-49.99999999999999
 30
0.0
 11
-39.49999999999999
 21
-50.0
 31
0.0
  0
ARC
  5
1000036B
102
{ACAD_XDICTIONARY
360
1000036C
102
}
330
1F
100
AcDbEntity
  8
MODELSKETCH_VISIBLE
100
AcDbCircle
 10
21.00000000000001
 20
-44.99999999999999
 30
0.0
 40
2.000000000000011
100
AcDbArc
 50
270.0
 51
0.0
  0
LINE
  5
1000036E
102
{ACAD_XDICTIONARY
360
1000036F
102
}
330
1F
100
AcDbEntity
  8
MODELSKETCH_VISIBLE
100
AcDbLine
 10
49.99999999999999
 20
39.50000000000002
 30
0.0
 11
50.00000000000001
 21
-39.49999999999999
 31
0.0
  0
LINE
  5
10000371
102
{ACAD_XDICTIONARY
360
10000372
102
}
330
1F
100
AcDbEntity
  8
MODELSKETCH_VISIBLE
100
AcDbLine
 10
-34.99999999999999
 20
6.000000000000012
 30
0.0
 11
-37.99999999999997
 21
6.000000000000008
 31
0.0
  0
LINE
  5
10000374
102
{ACAD_XDICTIONARY
360
10000375
102
}
330
1F
100
AcDbEntity
  8
MODELSKETCH_VISIBLE
100
AcDbLine
 10
-39.99999999999999
 20
31.0
 30
0.0
 11
-44.99999999999999
 21
31.0
 31
0.0
  0
LINE
  5
10000377
102
{ACAD_XDICTIONARY
360
10000378
102
}
330
1F
100
AcDbEntity
  8
MODELSKETCH_VISIBLE
100
AcDbLine
 10
10.99999999999999
 20
45.00000000000001
 30
0.0
 11
13.99999999999997
 21
45.00000000000001
 31
0.0
  0
LINE
  5
1000037A
102
{ACAD_XDICTIONARY
360
1000037B
102
}
330
1F
100
AcDbEntity
  8
MODELSKETCH_VISIBLE
100
AcDbLine
 10
-37.99999999999999
 20
29.00000000000001
 30
0.0
 11
-35.0
 21
29.00000000000001
 31
0.0
  0
LINE
  5
1000037D
102
{ACAD_XDICTIONARY
360
1000037E
102
}
330
1F
100
AcDbEntity
  8
MODELSKETCH_VISIBLE
100
AcDbLine
 10
37.99999999999998
 20
-28.99999999999999
 30
0.0
 11
34.99999999999999
 21
-28.99999999999999
 31
0.0
  0
ARC
  5
10000380
102
{ACAD_XDICTIONARY
360
10000381
102
}
330
1F
100
AcDbEntity
  8
MODELSKETCH_VISIBLE
100
AcDbCircle
 10
-34.99999999999999
 20
30.00000000000001
 30
0.0
 40
1.000000000000013
100
AcDbArc
 50
269.9999999999996
 51
0.0
  0
ARC
  5
10000383
102
{ACAD_XDICTIONARY
360
10000384
102
}
330
1F
100
AcDbEntity
  8
MODELSKETCH_VISIBLE
100
AcDbCircle
 10
11.00000000000002
 20
-46.0
 30
0.0
 40
1.000000000000015
100
AcDbArc
 50
90.0
 51
180.0
  0
CIRCLE
  5
10000386
102
{ACAD_XDICTIONARY
360
10000387
102
}
330
1F
100
AcDbEntity
  8
MODELSKETCH_VISIBLE
100
AcDbCircle
 10
-19.5
 20
11.5
 30
0.0
 40
1.750000000000002
  0
LINE
  5
10000389
102
{ACAD_XDICTIONARY
360
1000038A
102
}
330
1F
100
AcDbEntity
  8
MODELSKETCH_VISIBLE
100
AcDbLine
 10
-14.49999999999999
 20
14.00000000000001
 30
0.0
 11
14.49999999999999
 21
13.99999999999999
 31
0.0
  0
ARC
  5
1000038C
102
{ACAD_XDICTIONARY
360
1000038D
102
}
330
1F
100
AcDbEntity
  8
MODELSKETCH_VISIBLE
100
AcDbCircle
 10
-39.5
 20
48.0
 30
0.0
 40
1.999999999999995
100
AcDbArc
 50
90.0
 51
180.0
  0
CIRCLE
  5
1000038F
102
{ACAD_XDICTIONARY
360
10000390
102
}
330
1F
100
AcDbEntity
  8
MODELSKETCH_VISIBLE
100
AcDbCircle
 10
19.5
 20
11.5
 30
0.0
 40
1.750000000000002
  0
ARC
  5
10000392
102
{ACAD_XDICTIONARY
360
10000393
102
}
330
1F
100
AcDbEntity
  8
MODELSKETCH_VISIBLE
100
AcDbCircle
 10
-32.99999999999999
 20
30.0
 30
0.0
 40
1.000000000000006
100
AcDbArc
 50
90.0
 51
179.9999999999994
  0
ARC
  5
10000395
102
{ACAD_XDICTIONARY
360
10000396
102
}
330
1F
100
AcDbEntity
  8
MODELSKETCH_VISIBLE
100
AcDbCircle
 10
-19.5
 20
-11.49999999999999
 30
0.0
 40
3.999999999999998
100
AcDbArc
 50
0.0
 51
89.9999999999999
  0
ARC
  5
10000398
102
{ACAD_XDICTIONARY
360
10000399
102
}
330
1F
100
AcDbEntity
  8
MODELSKETCH_VISIBLE
100
AcDbCircle
 10
39.99999999999999
 20
-29.99999999999996
 30
0.0
 40
1.000000000000016
100
AcDbArc
 50
180.0000000000014
 51
270.0000000000004
  0
ARC
  5
1000039B
102
{ACAD_XDICTIONARY
360
1000039C
102
}
330
1F
100
AcDbEntity
  8
MODELSKETCH_VISIBLE
100
AcDbCircle
 10
-14.00000000000002
 20
46.00000000000001
 30
0.0
 40
1.000000000000009
100
AcDbArc
 50
180.0
 51
270.0000000000007
  0
ARC
  5
1000039E
102
{ACAD_XDICTIONARY
360
1000039F
102
}
330
1F
100
AcDbEntity
  8
MODELSKETCH_VISIBLE
100
AcDbCircle
 10
20.99999999999998
 20
45.0
 30
0.0
 40
2.000000000000009
100
AcDbArc
 50
0.0
 51
90.0
  0
ARC
  5
100003A1
102
{ACAD_XDICTIONARY
360
100003A2
102
}
330
1F
100
AcDbEntity
  8
MODELSKETCH_VISIBLE
100
AcDbCircle
 10
32.99999999999997
 20
5.000000000000029
 30
0.0
 40
1.000000000000011
100
AcDbArc
 50
270.0000000000004
 51
0.0
  0
LINE
  5
100003A4
102
{ACAD_XDICTIONARY
360
100003A5
102
}
330
1F
100
AcDbEntity
  8
MODELSKETCH_VISIBLE
100
AcDbLine
 10
-46.99999999999999
 20
5.999999999999995
 30
0.0
 11
-46.99999999999999
 21
29.0
 31
0.0
  0
ARC
  5
100003A7
102
{ACAD_XDICTIONARY
360
100003A8
102
}
330
1F
100
AcDbEntity
  8
MODELSKETCH_VISIBLE
100
AcDbCircle
 10
34.99999999999997
 20
30.00000000000002
 30
0.0
 40
1.000000000000011
100
AcDbArc
 50
180.0000000000006
 51
270.0000000000004
  0
ARC
  5
100003AA
102
{ACAD_XDICTIONARY
360
100003AB
102
}
330
1F
100
AcDbEntity
  8
MODELSKETCH_VISIBLE
100
AcDbCircle
 10
-28.0
 20
-28.99999999999998
 30
0.0
 40
2.000000000000009
100
AcDbArc
 50
270.0
 51
0.0
  0
LINE
  5
100003AD
102
{ACAD_XDICTIONARY
360
100003AE
102
}
330
1F
100
AcDbEntity
  8
MODELSKETCH_VISIBLE
100
AcDbLine
 10
4.000000000000014
 20
-47.0
 30
0.0
 11
9.000000000000012
 21
-47.0
 31
0.0
  0
LINE
  5
100003B0
102
{ACAD_XDICTIONARY
360
100003B1
102
}
330
1F
100
AcDbEntity
  8
MODELSKETCH_VISIBLE
100
AcDbLine
 10
-21.00000000000004
 20
-19.99999999999999
 30
0.0
 11
-16.00000000000004
 21
-19.99999999999999
 31
0.0
  0
CIRCLE
  5
100003B3
102
{ACAD_XDICTIONARY
360
100003B4
102
}
330
1F
100
AcDbEntity
  8
MODELSKETCH_VISIBLE
100
AcDbCircle
 10
-19.5
 20
-11.5
 30
0.0
 40
1.750000000000002
  0
ARC
  5
100003B6
102
{ACAD_XDICTIONARY
360
100003B7
102
}
330
1F
100
AcDbEntity
  8
MODELSKETCH_VISIBLE
100
AcDbCircle
 10
13.99999999999998
 20
21.0
 30
0.0
 40
1.000000000000016
100
AcDbArc
 50
0.0
 51
90.0
  0
ARC
  5
100003B9
102
{ACAD_XDICTIONARY
360
100003BA
102
}
330
1F
100
AcDbEntity
  8
MODELSKETCH_VISIBLE
100
AcDbCircle
 10
8.999999999999991
 20
-21.0
 30
0.0
 40
1.000000000000008
100
AcDbArc
 50
0.0
 51
89.99999999999959
  0
ARC
  5
100003BC
102
{ACAD_XDICTIONARY
360
100003BD
102
}
330
1F
100
AcDbEntity
  8
MODELSKETCH_VISIBLE
100
AcDbCircle
 10
-11.00000000000005
 20
-20.99999999999998
 30
0.0
 40
1.000000000000015
100
AcDbArc
 50
270.0
 51
0.0
  0
LINE
  5
100003BF
102
{ACAD_XDICTIONARY
360
100003C0
102
}
330
1F
100
AcDbEntity
  8
MODELSKETCH_VISIBLE
100
AcDbLine
 10
-27.99999999999999
 20
31.00000000000001
 30
0.0
 11
-32.99999999999999
 21
31.00000000000001
 31
0.0
  0
LINE
  5
100003C2
102
{ACAD_XDICTIONARY
360
100003C3
102
}
330
1F
100
AcDbEntity
  8
MODELSKETCH_VISIBLE
100
AcDbLine
 10
-44.99999999999999
 20
31.0
 30
0.0
 11
-39.99999999999999
 21
31.0
 31
0.0
  0
LINE
  5
100003C5
102
{ACAD_XDICTIONARY
360
100003C6
102
}
330
1F
100
AcDbEntity
  8
MODELSKETCH_VISIBLE
100
AcDbLine
 10
-47.00000000000001
 20
-29.0
 30
0.0
 11
-47.00000000000001
 21
-5.999999999999991
 31
0.0
  0
LINE
  5
100003C8
102
{ACAD_XDICTIONARY
360
100003C9
102
}
330
1F
100
AcDbEntity
  8
MODELSKETCH_VISIBLE
100
AcDbLine
 10
11.0
 20
22.00000000000001
 30
0.0
 11
13.99999999999998
 21
22.00000000000001
 31
0.0
  0
ARC
  5
100003CB
102
{ACAD_XDICTIONARY
360
100003CC
102
}
330
1F
100
AcDbEntity
  8
MODELSKETCH_VISIBLE
100
AcDbCircle
 10
44.99999999999999
 20
6.000000000000035
 30
0.0
 40
2.000000000000011
100
AcDbArc
 50
270.0
 51
0.0
  0
ARC
  5
100003CE
102
{ACAD_XDICTIONARY
360
100003CF
102
}
330
1F
100
AcDbEntity
  8
MODELSKETCH_VISIBLE
100
AcDbCircle
 10
11.0
 20
21.0
 30
0.0
 40
1.000000000000013
100
AcDbArc
 50
90.0
 51
180.0000000000002
  0
ARC
  5
100003D1
102
{ACAD_XDICTIONARY
360
100003D2
102
}
330
1F
100
AcDbEntity
  8
MODELSKETCH_VISIBLE
100
AcDbCircle
 10
-16.00000000000004
 20
-45.99999999999997
 30
0.0
 40
1.00000000000001
100
AcDbArc
 50
270.0000000000006
 51
0.0
  0
LINE
  5
100003D4
102
{ACAD_XDICTIONARY
360
100003D5
102
}
330
1F
100
AcDbEntity
  8
MODELSKETCH_VISIBLE
100
AcDbLine
 10
20.99999999999998
 20
47.00000000000001
 30
0.0
 11
15.99999999999999
 21
47.00000000000001
 31
0.0
  0
LINE
  5
100003D7
102
{ACAD_XDICTIONARY
360
100003D8
102
}
330
1F
100
AcDbEntity
  8
MODELSKETCH_VISIBLE
100
AcDbLine
 10
-4.000000000000004
 20
20.00000000000002
 30
0.0
 11
-8.999999999999998
 21
20.00000000000001
 31
0.0
  0
ARC
  5
100003DA
102
{ACAD_XDICTIONARY
360
100003DB
102
}
330
1F
100
AcDbEntity
  8
MODELSKETCH_VISIBLE
100
AcDbCircle
 10
-9.000000000000005
 20
46.00000000000002
 30
0.0
 40
1.000000000000006
100
AcDbArc
 50
90.0000000000005
 51
180.0
  0
ARC
  5
100003DD
102
{ACAD_XDICTIONARY
360
100003DE
102
}
330
1F
100
AcDbEntity
  8
MODELSKETCH_VISIBLE
100
AcDbCircle
 10
34.99999999999999
 20
5.000000000000028
 30
0.0
 40
1.000000000000009
100
AcDbArc
 50
90.0
 51
180.0000000000007
  0
ARC
  5
100003E0
102
{ACAD_XDICTIONARY
360
100003E1
102
}
330
1F
100
AcDbEntity
  8
MODELSKETCH_VISIBLE
100
AcDbCircle
 10
37.99999999999996
 20
-4.999999999999984
 30
0.0
 40
1.000000000000016
100
AcDbArc
 50
270.0
 51
0.0
  0
LINE
  5
100003E3
102
{ACAD_XDICTIONARY
360
100003E4
102
}
330
1F
100
AcDbEntity
  8
MODELSKETCH_VISIBLE
100
AcDbLine
 10
-26.0
 20
-5.999999999999981
 30
0.0
 11
-25.99999999999999
 21
-28.99999999999999
 31
0.0
  0
LINE
  5
100003E6
102
{ACAD_XDICTIONARY
360
100003E7
102
}
330
1F
100
AcDbEntity
  8
MODELSKETCH_VISIBLE
100
AcDbLine
 10
-11.00000000000003
 20
45.00000000000001
 30
0.0
 11
-14.00000000000001
 21
45.00000000000001
 31
0.0
  0
ARC
  5
100003E9
102
{ACAD_XDICTIONARY
360
100003EA
102
}
330
1F
100
AcDbEntity
  8
MODELSKETCH_VISIBLE
100
AcDbCircle
 10
-27.99999999999998
 20
6.000000000000018
 30
0.0
 40
2.000000000000008
100
AcDbArc
 50
270.0
 51
0.0
  0
ARC
  5
100003EC
102
{ACAD_XDICTIONARY
360
100003ED
102
}
330
1F
100
AcDbEntity
  8
MODELSKETCH_VISIBLE
100
AcDbCircle
 10
44.99999999999999
 20
-28.99999999999998
 30
0.0
 40
2.000000000000011
100
AcDbArc
 50
270.0
 51
0.0
  0
LINE
  5
100003EF
102
{ACAD_XDICTIONARY
360
100003F0
102
}
330
1F
100
AcDbEntity
  8
MODELSKETCH_VISIBLE
100
AcDbLine
 10
3.999999999999996
 20
20.0
 30
0.0
 11
8.999999999999996
 21
20.0
 31
0.0
  0
ARC
  5
100003F2
102
{ACAD_XDICTIONARY
360
100003F3
102
}
330
1F
100
AcDbEntity
  8
MODELSKETCH_VISIBLE
100
AcDbCircle
 10
-21.00000000000002
 20
-44.99999999999999
 30
0.0
 40
2.000000000000007
100
AcDbArc
 50
180.0000000000002
 51
269.9999999999999
  0
ARC
  5
100003F5
102
{ACAD_XDICTIONARY
360
100003F6
102
}
330
1F
100
AcDbEntity
  8
MODELSKETCH_VISIBLE
100
AcDbCircle
 10
27.99999999999997
 20
-5.999999999999997
 30
0.0
 40
2.000000000000008
100
AcDbArc
 50
90.0
 51
179.9999999999998
  0
LINE
  5
100003F8
102
{ACAD_XDICTIONARY
360
100003F9
102
}
330
1F
100
AcDbEntity
  8
MODELSKETCH_VISIBLE
100
AcDbLine
 10
-45.0
 20
-30.99999999999999
 30
0.0
 11
-40.0
 21
-30.99999999999999
 31
0.0
  0
ARC
  5
100003FB
102
{ACAD_XDICTIONARY
360
100003FC
102
}
330
1F
100
AcDbEntity
  8
MODELSKETCH_VISIBLE
100
AcDbCircle
 10
20.99999999999999
 20
-22.0
 30
0.0
 40
2.000000000000011
100
AcDbArc
 50
0.0
 51
89.9999999999998
  0
ARC
  5
100003FE
102
{ACAD_XDICTIONARY
360
100003FF
102
}
330
1F
100
AcDbEntity
  8
MODELSKETCH_VISIBLE
100
AcDbCircle
 10
16.00000000000002
 20
-45.99999999999999
 30
0.0
 40
1.000000000000004
100
AcDbArc
 50
180.0000000000004
 51
270.0000000000002
  0
ARC
  5
10000401
102
{ACAD_XDICTIONARY
360
10000402
102
}
330
1F
100
AcDbEntity
  8
MODELSKETCH_VISIBLE
100
AcDbCircle
 10
39.99999999999999
 20
5.000000000000035
 30
0.0
 40
1.00000000000001
100
AcDbArc
 50
180.0000000000007
 51
270.0
  0
LINE
  5
10000404
102
{ACAD_XDICTIONARY
360
10000405
102
}
330
1F
100
AcDbEntity
  8
MODELSKETCH_VISIBLE
100
AcDbLine
 10
-35.00000000000002
 20
-5.999999999999988
 30
0.0
 11
-38.00000000000001
 21
-5.999999999999988
 31
0.0
  0
ARC
  5
10000407
102
{ACAD_XDICTIONARY
360
10000408
102
}
330
1F
100
AcDbEntity
  8
MODELSKETCH_VISIBLE
100
AcDbCircle
 10
-37.99999999999997
 20
5.000000000000004
 30
0.0
 40
1.000000000000015
100
AcDbArc
 50
90.0
 51
180.0
  0
LINE
  5
1000040A
102
{ACAD_XDICTIONARY
360
1000040B
102
}
330
1F
100
AcDbEntity
  8
MODELSKETCH_VISIBLE
100
AcDbLine
 10
-23.00000000000001
 20
22.0
 30
0.0
 11
-23.00000000000002
 21
45.00000000000001
 31
0.0
  0
ARC
  5
1000040D
102
{ACAD_XDICTIONARY
360
1000040E
102
}
330
1F
100
AcDbEntity
  8
MODELSKETCH_VISIBLE
100
AcDbCircle
 10
-39.99999999999999
 20
5.000000000000018
 30
0.0
 40
1.000000000000011
100
AcDbArc
 50
270.0000000000004
 51
0.0
  0
LINE
  5
10000410
102
{ACAD_XDICTIONARY
360
10000411
102
}
330
1F
100
AcDbEntity
  8
MODELSKETCH_VISIBLE
100
AcDbLine
 10
21.0
 20
-19.99999999999999
 30
0.0
 11
16.0
 21
-19.99999999999999
 31
0.0
  0
LINE
  5
10000413
102
{ACAD_XDICTIONARY
360
10000414
102
}
330
1F
100
AcDbEntity
  8
MODELSKETCH_VISIBLE
100
AcDbLine
 10
-21.00000000000002
 20
-46.99999999999999
 30
0.0
 11
-16.00000000000002
 21
-46.99999999999999
 31
0.0
  0
LINE
  5
10000416
102
{ACAD_XDICTIONARY
360
10000417
102
}
330
1F
100
AcDbEntity
  8
MODELSKETCH_VISIBLE
100
AcDbLine
 10
34.99999999999999
 20
-28.99999999999999
 30
0.0
 11
37.99999999999998
 21
-28.99999999999999
 31
0.0
  0
LINE
  5
10000419
102
{ACAD_XDICTIONARY
360
1000041A
102
}
330
1F
100
AcDbEntity
  8
MODELSKETCH_VISIBLE
100
AcDbLine
 10
37.99999999999996
 20
-5.999999999999988
 30
0.0
 11
34.99999999999998
 21
-5.999999999999988
 31
0.0
  0
ARC
  5
1000041C
102
{ACAD_XDICTIONARY
360
1000041D
102
}
330
1F
100
AcDbEntity
  8
MODELSKETCH_VISIBLE
100
AcDbCircle
 10
3.999999999999993
 20
22.0
 30
0.0
 40
2.000000000000007
100
AcDbArc
 50
180.0000000000003
 51
270.0000000000001
  0
ARC
  5
1000041F
102
{ACAD_XDICTIONARY
360
10000420
102
}
330
1F
100
AcDbEntity
  8
MODELSKETCH_VISIBLE
100
AcDbCircle
 10
-37.99999999999999
 20
30.00000000000002
 30
0.0
 40
1.00000000000002
100
AcDbArc
 50
180.0000000000014
 51
270.0
  0
ARC
  5
10000422
102
{ACAD_XDICTIONARY
360
10000423
102
}
330
1F
100
AcDbEntity
  8
MODELSKETCH_VISIBLE
100
AcDbCircle
 10
10.99999999999998
 20
46.00000000000001
 30
0.0
 40
1.000000000000009
100
AcDbArc
 50
180.0000000000004
 51
270.0000000000007
  0
ARC
  5
10000425
102
{ACAD_XDICTIONARY
360
10000426
102
}
330
1F
100
AcDbEntity
  8
MODELSKETCH_VISIBLE
100
AcDbCircle
 10
3.999999999999983
 20
45.0
 30
0.0
 40
2.000000000000009
100
AcDbArc
 50
90.0
 51
180.0
  0
ARC
  5
10000428
102
{ACAD_XDICTIONARY
360
10000429
102
}
330
1F
100
AcDbEntity
  8
MODELSKETCH_VISIBLE
100
AcDbCircle
 10
-14.00000000000003
 20
-20.99999999999998
 30
0.0
 40
1.000000000000015
100
AcDbArc
 50
180.0000000000006
 51
270.0
  0
LINE
  5
1000042B
102
{ACAD_XDICTIONARY
360
1000042C
102
}
330
1F
100
AcDbEntity
  8
MODELSKETCH_VISIBLE
100
AcDbLine
 10
-28.00000000000001
 20
-3.999999999999985
 30
0.0
 11
-33.00000000000001
 21
-3.999999999999987
 31
0.0
  0
ARC
  5
1000042E
102
{ACAD_XDICTIONARY
360
1000042F
102
}
330
1F
100
AcDbEntity
  8
MODELSKETCH_VISIBLE
100
AcDbCircle
 10
-11.00000000000002
 20
46.00000000000001
 30
0.0
 40
1.000000000000009
100
AcDbArc
 50
269.9999999999993
 51
0.0
  0
LINE
  5
10000431
102
{ACAD_XDICTIONARY
360
10000432
102
}
330
1F
100
AcDbEntity
  8
MODELSKETCH_VISIBLE
100
AcDbLine
 10
44.99999999999999
 20
-30.99999999999998
 30
0.0
 11
40.0
 21
-30.99999999999999
 31
0.0
  0
ARC
  5
10000434
102
{ACAD_XDICTIONARY
360
10000435
102
}
330
1F
100
AcDbEntity
  8
MODELSKETCH_VISIBLE
100
AcDbCircle
 10
13.99999999999998
 20
-20.99999999999999
 30
0.0
 40
1.000000000000018
100
AcDbArc
 50
270.0000000000004
 51
0.0
  0
ARC
  5
10000437
102
{ACAD_XDICTIONARY
360
10000438
102
}
330
1F
100
AcDbEntity
  8
MODELSKETCH_VISIBLE
100
AcDbCircle
 10
-8.999999999999995
 20
21.00000000000002
 30
0.0
 40
1.000000000000008
100
AcDbArc
 50
180.0000000000006
 51
269.9999999999998
  0
LINE
  5
1000043A
102
{ACAD_XDICTIONARY
360
1000043B
102
}
330
1F
100
AcDbEntity
  8
MODELSKETCH_VISIBLE
100
AcDbLine
 10
-4.000000000000036
 20
-19.99999999999998
 30
0.0
 11
-9.000000000000032
 21
-19.99999999999998
 31
0.0
  0
LINE
  5
1000043D
102
{ACAD_XDICTIONARY
360
1000043E
102
}
330
1F
100
AcDbEntity
  8
MODELSKETCH_VISIBLE
100
AcDbLine
 10
13.99999999999999
 20
-22.0
 30
0.0
 11
11.00000000000001
 21
-22.0
 31
0.0
  0
LINE
  5
10000440
102
{ACAD_XDICTIONARY
360
10000441
102
}
330
1F
100
AcDbEntity
  8
MODELSKETCH_VISIBLE
100
AcDbLine
 10
-25.99999999999998
 20
29.00000000000001
 30
0.0
 11
-25.99999999999997
 21
6.000000000000012
 31
0.0
  0
LINE
  5
10000443
102
{ACAD_XDICTIONARY
360
10000444
102
}
330
1F
100
AcDbEntity
  8
MODELSKETCH_VISIBLE
100
AcDbLine
 10
27.99999999999999
 20
-30.99999999999999
 30
0.0
 11
32.99999999999998
 21
-30.99999999999999
 31
0.0
  0
ARC
  5
10000446
102
{ACAD_XDICTIONARY
360
10000447
102
}
330
1F
100
AcDbEntity
  8
MODELSKETCH_VISIBLE
100
AcDbCircle
 10
37.99999999999999
 20
-30.0
 30
0.0
 40
1.000000000000016
100
AcDbArc
 50
0.0
 51
90.0000000000004
  0
LINE
  5
10000449
102
{ACAD_XDICTIONARY
360
1000044A
102
}
330
1F
100
AcDbEntity
  8
MODELSKETCH_VISIBLE
100
AcDbLine
 10
11.00000000000002
 20
-45.0
 30
0.0
 11
14.0
 21
-45.0
 31
0.0
  0
ARC
  5
1000044C
102
{ACAD_XDICTIONARY
360
1000044D
102
}
330
1F
100
AcDbEntity
  8
MODELSKETCH_VISIBLE
100
AcDbCircle
 10
32.99999999999998
 20
-29.99999999999998
 30
0.0
 40
1.000000000000006
100
AcDbArc
 50
270.0
 51
0.0
  0
ARC
  5
1000044F
102
{ACAD_XDICTIONARY
360
10000450
102
}
330
1F
100
AcDbEntity
  8
MODELSKETCH_VISIBLE
100
AcDbCircle
 10
21.0
 20
22.00000000000002
 30
0.0
 40
2.000000000000007
100
AcDbArc
 50
269.9999999999998
 51
0.0
  0
ARC
  5
10000452
102
{ACAD_XDICTIONARY
360
10000453
102
}
330
1F
100
AcDbEntity
  8
MODELSKETCH_VISIBLE
100
AcDbCircle
 10
11.00000000000002
 20
-46.0
 30
0.0
 40
1.000000000000015
100
AcDbArc
 50
90.0
 51
180.0
  0
ARC
  5
10000455
102
{ACAD_XDICTIONARY
360
10000456
102
}
330
1F
100
AcDbEntity
  8
MODELSKETCH_VISIBLE
100
AcDbCircle
 10
-16.00000000000005
 20
-20.99999999999999
 30
0.0
 40
1.000000000000008
100
AcDbArc
 50
0.0
 51
89.99999999999959
  0
LINE
  5
10000458
102
{ACAD_XDICTIONARY
360
10000459
102
}
330
1F
100
AcDbEntity
  8
MODELSKETCH_VISIBLE
100
AcDbLine
 10
32.99999999999996
 20
-3.999999999999992
 30
0.0
 11
27.99999999999997
 21
-3.999999999999995
 31
0.0
  0
ARC
  5
1000045B
102
{ACAD_XDICTIONARY
360
1000045C
102
}
330
1F
100
AcDbEntity
  8
MODELSKETCH_VISIBLE
100
AcDbCircle
 10
-45.0
 20
-29.0
 30
0.0
 40
2.000000000000004
100
AcDbArc
 50
180.0
 51
270.0
  0
ARC
  5
1000045E
102
{ACAD_XDICTIONARY
360
1000045F
102
}
330
1F
100
AcDbEntity
  8
MODELSKETCH_VISIBLE
100
AcDbCircle
 10
-44.99999999999998
 20
6.000000000000007
 30
0.0
 40
2.00000000000001
100
AcDbArc
 50
180.0000000000003
 51
270.0
  0
CIRCLE
  5
10000461
102
{ACAD_XDICTIONARY
360
10000462
102
}
330
1F
100
AcDbEntity
  8
MODELSKETCH_VISIBLE
100
AcDbCircle
 10
-19.5
 20
-11.5
 30
0.0
 40
1.750000000000002
  0
LINE
  5
10000464
102
{ACAD_XDICTIONARY
360
10000465
102
}
330
1F
100
AcDbEntity
  8
MODELSKETCH_VISIBLE
100
AcDbLine
 10
-23.00000000000003
 20
-45.0
 30
0.0
 11
-23.00000000000004
 21
-21.99999999999999
 31
0.0
  0
ARC
  5
10000467
102
{ACAD_XDICTIONARY
360
10000468
102
}
330
1F
100
AcDbEntity
  8
MODELSKETCH_VISIBLE
100
AcDbCircle
 10
39.99999999999998
 20
30.00000000000001
 30
0.0
 40
1.00000000000001
100
AcDbArc
 50
90.0000000000004
 51
179.9999999999994
  0
LINE
  5
1000046A
102
{ACAD_XDICTIONARY
360
1000046B
102
}
330
1F
100
AcDbEntity
  8
MODELSKETCH_VISIBLE
100
AcDbLine
 10
16.0
 20
20.0
 30
0.0
 11
20.99999999999999
 21
20.00000000000001
 31
0.0
  0
ARC
  5
1000046D
102
{ACAD_XDICTIONARY
360
1000046E
102
}
330
1F
100
AcDbEntity
  8
MODELSKETCH_VISIBLE
100
AcDbCircle
 10
16.00000000000001
 20
21.00000000000001
 30
0.0
 40
1.00000000000001
100
AcDbArc
 50
180.0000000000006
 51
269.9999999999996
  0
LINE
  5
10000470
102
{ACAD_XDICTIONARY
360
10000471
102
}
330
1F
100
AcDbEntity
  8
MODELSKETCH_VISIBLE
100
AcDbLine
 10
13.99999999999997
 20
45.00000000000001
 30
0.0
 11
10.99999999999999
 21
45.00000000000001
 31
0.0
  0
ARC
  5
10000473
102
{ACAD_XDICTIONARY
360
10000474
102
}
330
1F
100
AcDbEntity
  8
MODELSKETCH_VISIBLE
100
AcDbCircle
 10
-45.00000000000001
 20
-6.000000000000004
 30
0.0
 40
2.000000000000011
100
AcDbArc
 50
90.0
 51
179.9999999999996
  0
ARC
  5
10000476
102
{ACAD_XDICTIONARY
360
10000477
102
}
330
1F
100
AcDbEntity
  8
MODELSKETCH_VISIBLE
100
AcDbCircle
 10
-27.99999999999999
 20
29.0
 30
0.0
 40
2.000000000000007
100
AcDbArc
 50
0.0
 51
90.0000000000002
  0
ARC
  5
10000479
102
{ACAD_XDICTIONARY
360
1000047A
102
}
330
1F
100
AcDbEntity
  8
MODELSKETCH_VISIBLE
100
AcDbCircle
 10
-9.000000000000028
 20
-45.99999999999997
 30
0.0
 40
0.9999999999999991
100
AcDbArc
 50
180.0000000000008
 51
270.0000000000008
  0
ARC
  5
1000047C
102
{ACAD_XDICTIONARY
360
1000047D
102
}
330
1F
100
AcDbEntity
  8
MODELSKETCH_VISIBLE
100
AcDbCircle
 10
-11.00000000000002
 20
-45.99999999999997
 30
0.0
 40
1.000000000000009
100
AcDbArc
 50
0.0
 51
90.00000000000072
  0
ARC
  5
1000047F
102
{ACAD_XDICTIONARY
360
10000480
102
}
330
1F
100
AcDbEntity
  8
MODELSKETCH_VISIBLE
100
AcDbCircle
 10
-21.00000000000004
 20
-22.0
 30
0.0
 40
2.000000000000011
100
AcDbArc
 50
90.0
 51
179.9999999999997
  0
LINE
  5
10000482
102
{ACAD_XDICTIONARY
360
10000483
102
}
330
1F
100
AcDbEntity
  8
MODELSKETCH_VISIBLE
100
AcDbLine
 10
-21.0
 20
20.00000000000001
 30
0.0
 11
-16.00000000000001
 21
20.00000000000001
 31
0.0
  0
ARC
  5
10000485
102
{ACAD_XDICTIONARY
360
10000486
102
}
330
1F
100
AcDbEntity
  8
MODELSKETCH_VISIBLE
100
AcDbCircle
 10
-28.00000000000001
 20
-5.999999999999993
 30
0.0
 40
2.00000000000001
100
AcDbArc
 50
0.0
 51
90.0
  0
LINE
  5
10000488
102
{ACAD_XDICTIONARY
360
10000489
102
}
330
1F
100
AcDbEntity
  8
MODELSKETCH_VISIBLE
100
AcDbLine
 10
-14.00000000000002
 20
-44.99999999999999
 30
0.0
 11
-11.00000000000003
 21
-44.99999999999999
 31
0.0
  0
ARC
  5
1000048B
102
{ACAD_XDICTIONARY
360
1000048C
102
}
330
1F
100
AcDbEntity
  8
MODELSKETCH_VISIBLE
100
AcDbCircle
 10
-9.000000000000028
 20
-20.99999999999999
 30
0.0
 40
1.000000000000004
100
AcDbArc
 50
90.0000000000002
 51
179.9999999999998
  0
ARC
  5
1000048E
102
{ACAD_XDICTIONARY
360
1000048F
102
}
330
1F
100
AcDbEntity
  8
MODELSKETCH_VISIBLE
100
AcDbCircle
 10
-38.00000000000001
 20
-4.999999999999987
 30
0.0
 40
1.000000000000015
100
AcDbArc
 50
180.0000000000009
 51
270.0
  0
ARC
  5
10000491
102
{ACAD_XDICTIONARY
360
10000492
102
}
330
1F
100
AcDbEntity
  8
MODELSKETCH_VISIBLE
100
AcDbCircle
 10
-16.00000000000003
 20
46.00000000000001
 30
0.0
 40
1.00000000000001
100
AcDbArc
 50
0.0
 51
89.99999999999939
  0
LINE
  5
10000494
102
{ACAD_XDICTIONARY
360
10000495
102
}
330
1F
100
AcDbEntity
  8
MODELSKETCH_VISIBLE
100
AcDbLine
 10
44.99999999999997
 20
-3.999999999999985
 30
0.0
 11
39.99999999999997
 21
-3.999999999999987
 31
0.0
  0
LINE
  5
10000497
102
{ACAD_XDICTIONARY
360
10000498
102
}
330
1F
100
AcDbEntity
  8
MODELSKETCH_VISIBLE
100
AcDbLine
 10
25.99999999999998
 20
6.000000000000009
 30
0.0
 11
25.99999999999996
 21
29.00000000000001
 31
0.0
  0
LINE
  5
1000049A
102
{ACAD_XDICTIONARY
360
1000049B
102
}
330
1F
100
AcDbEntity
  8
MODELSKETCH_VISIBLE
100
AcDbLine
 10
23.00000000000001
 20
-21.99999999999999
 30
0.0
 11
23.00000000000002
 21
-45.0
 31
0.0
  0
ARC
  5
1000049D
102
{ACAD_XDICTIONARY
360
1000049E
102
}
330
1F
100
AcDbEntity
  8
MODELSKETCH_VISIBLE
100
AcDbCircle
 10
44.99999999999998
 20
29.00000000000003
 30
0.0
 40
2.0
100
AcDbArc
 50
0.0
 51
90.0000000000002
  0
ARC
  5
100004A0
102
{ACAD_XDICTIONARY
360
100004A1
102
}
330
1F
100
AcDbEntity
  8
MODELSKETCH_VISIBLE
100
AcDbCircle
 10
34.99999999999999
 20
-29.99999999999998
 30
0.0
 40
1.00000000000001
100
AcDbArc
 50
90.0
 51
180.0000000000006
  0
LINE
  5
100004A3
102
{ACAD_XDICTIONARY
360
100004A4
102
}
330
1F
100
AcDbEntity
  8
MODELSKETCH_VISIBLE
100
AcDbLine
 10
46.99999999999998
 20
29.00000000000003
 30
0.0
 11
46.99999999999999
 21
6.000000000000024
 31
0.0
  0
ARC
  5
100004A6
102
{ACAD_XDICTIONARY
360
100004A7
102
}
330
1F
100
AcDbEntity
  8
MODELSKETCH_VISIBLE
100
AcDbCircle
 10
-21.00000000000001
 20
22.00000000000001
 30
0.0
 40
2.000000000000007
100
AcDbArc
 50
180.0000000000003
 51
270.0000000000001
  0
ARC
  5
100004A9
102
{ACAD_XDICTIONARY
360
100004AA
102
}
330
1F
100
AcDbEntity
  8
MODELSKETCH_VISIBLE
100
AcDbCircle
 10
32.99999999999996
 20
30.00000000000001
 30
0.0
 40
1.00000000000001
100
AcDbArc
 50
0.0
 51
89.99999999999959
  0
ARC
  5
100004AC
102
{ACAD_XDICTIONARY
360
100004AD
102
}
330
1F
100
AcDbEntity
  8
MODELSKETCH_VISIBLE
100
AcDbCircle
 10
4.000000000000017
 20
-45.0
 30
0.0
 40
2.00000000000001
100
AcDbArc
 50
180.0000000000002
 51
269.9999999999999
  0
ARC
  5
100004AF
102
{ACAD_XDICTIONARY
360
100004B0
102
}
330
1F
100
AcDbEntity
  8
MODELSKETCH_VISIBLE
100
AcDbCircle
 10
39.99999999999998
 20
-4.999999999999988
 30
0.0
 40
1.000000000000005
100
AcDbArc
 50
90.0000000000004
 51
180.0
  0
ARC
  5
100004B2
102
{ACAD_XDICTIONARY
360
100004B3
102
}
330
1F
100
AcDbEntity
  8
MODELSKETCH_VISIBLE
100
AcDbCircle
 10
27.99999999999997
 20
29.00000000000002
 30
0.0
 40
2.000000000000005
100
AcDbArc
 50
90.0
 51
180.0000000000001
  0
ARC
  5
100004B5
102
{ACAD_XDICTIONARY
360
100004B6
102
}
330
1F
100
AcDbEntity
  8
MODELSKETCH_VISIBLE
100
AcDbCircle
 10
44.99999999999997
 20
-5.999999999999995
 30
0.0
 40
2.000000000000011
100
AcDbArc
 50
0.0
 51
90.0
  0
ARC
  5
100004B8
102
{ACAD_XDICTIONARY
360
100004B9
102
}
330
1F
100
AcDbEntity
  8
MODELSKETCH_VISIBLE
100
AcDbCircle
 10
-16.00000000000002
 20
21.00000000000002
 30
0.0
 40
1.000000000000011
100
AcDbArc
 50
270.0000000000006
 51
0.0
  0
ARC
  5
100004BB
102
{ACAD_XDICTIONARY
360
100004BC
102
}
330
1F
100
AcDbEntity
  8
MODELSKETCH_VISIBLE
100
AcDbCircle
 10
37.99999999999996
 20
30.00000000000002
 30
0.0
 40
1.000000000000016
100
AcDbArc
 50
270.0
 51
0.0
  0
ARC
  5
100004BE
102
{ACAD_XDICTIONARY
360
100004BF
102
}
330
1F
100
AcDbEntity
  8
MODELSKETCH_VISIBLE
100
AcDbCircle
 10
9.000000000000002
 20
-45.99999999999999
 30
0.0
 40
1.00000000000001
100
AcDbArc
 50
270.0000000000006
 51
0.0
  0
LINE
  5
100004C1
102
{ACAD_XDICTIONARY
360
100004C2
102
}
330
1F
100
AcDbEntity
  8
MODELSKETCH_VISIBLE
100
AcDbLine
 10
-11.00000000000005
 20
-21.99999999999998
 30
0.0
 11
-14.00000000000003
 21
-21.99999999999998
 31
0.0
  0
ARC
  5
100004C4
102
{ACAD_XDICTIONARY
360
100004C5
102
}
330
1F
100
AcDbEntity
  8
MODELSKETCH_VISIBLE
100
AcDbCircle
 10
37.99999999999997
 20
5.00000000000002
 30
0.0
 40
1.000000000000016
100
AcDbArc
 50
0.0
 51
90.0
  0
ARC
  5
100004C7
102
{ACAD_XDICTIONARY
360
100004C8
102
}
330
1F
100
AcDbEntity
  8
MODELSKETCH_VISIBLE
100
AcDbCircle
 10
16.00000000000001
 20
-21.0
 30
0.0
 40
1.00000000000001
100
AcDbArc
 50
90.00000000000063
 51
179.9999999999996
  0
LINE
  5
100004CA
102
{ACAD_XDICTIONARY
360
100004CB
102
}
330
1F
100
AcDbEntity
  8
MODELSKETCH_VISIBLE
100
AcDbLine
 10
-37.99999999999999
 20
-28.99999999999999
 30
0.0
 11
-35.00000000000001
 21
-28.99999999999999
 31
0.0
  0
LINE
  5
100004CD
102
{ACAD_XDICTIONARY
360
100004CE
102
}
330
1F
100
AcDbEntity
  8
MODELSKETCH_VISIBLE
100
AcDbLine
 10
34.99999999999999
 20
6.00000000000002
 30
0.0
 11
37.99999999999997
 21
6.000000000000024
 31
0.0
  0
LINE
  5
100004D0
102
{ACAD_XDICTIONARY
360
100004D1
102
}
330
1F
100
AcDbEntity
  8
MODELSKETCH_VISIBLE
100
AcDbLine
 10
-4.00000000000002
 20
47.00000000000001
 30
0.0
 11
-9.000000000000014
 21
47.00000000000001
 31
0.0
  0
ARC
  5
100004D3
102
{ACAD_XDICTIONARY
360
100004D4
102
}
330
1F
100
AcDbEntity
  8
MODELSKETCH_VISIBLE
100
AcDbCircle
 10
-39.99999999999999
 20
30.0
 30
0.0
 40
1.000000000000006
100
AcDbArc
 50
0.0
 51
90.0
  0
ARC
  5
100004D6
102
{ACAD_XDICTIONARY
360
100004D7
102
}
330
1F
100
AcDbEntity
  8
MODELSKETCH_VISIBLE
100
AcDbCircle
 10
8.999999999999968
 20
46.0
 30
0.0
 40
1.00000000000001
100
AcDbArc
 50
0.0
 51
89.99999999999929
  0
LINE
  5
100004D9
102
{ACAD_XDICTIONARY
360
100004DA
102
}
330
1F
100
AcDbEntity
  8
MODELSKETCH_VISIBLE
100
AcDbLine
 10
2.000000000000005
 20
-45.00000000000001
 30
0.0
 11
1.999999999999997
 21
-22.0
 31
0.0
  0
ARC
  5
100004DC
102
{ACAD_XDICTIONARY
360
100004DD
102
}
330
1F
100
AcDbEntity
  8
MODELSKETCH_VISIBLE
100
AcDbCircle
 10
27.99999999999998
 20
-28.99999999999999
 30
0.0
 40
2.000000000000007
100
AcDbArc
 50
180.0000000000002
 51
270.0000000000001
  0
LINE
  5
100004DF
102
{ACAD_XDICTIONARY
360
100004E0
102
}
330
1F
100
AcDbEntity
  8
MODELSKETCH_VISIBLE
100
AcDbLine
 10
1.999999999999988
 20
21.99999999999999
 30
0.0
 11
1.999999999999979
 21
45.0
 31
0.0
  0
ARC
  5
100004E2
102
{ACAD_XDICTIONARY
360
100004E3
102
}
330
1F
100
AcDbEntity
  8
MODELSKETCH_VISIBLE
100
AcDbCircle
 10
-4.000000000000022
 20
-44.99999999999997
 30
0.0
 40
2.000000000000009
100
AcDbArc
 50
270.0
 51
0.0
  0
LINE
  5
100004E5
102
{ACAD_XDICTIONARY
360
100004E6
102
}
330
1F
100
AcDbEntity
  8
MODELSKETCH_VISIBLE
100
AcDbLine
 10
46.99999999999999
 20
-5.999999999999981
 30
0.0
 11
47.00000000000001
 21
-28.99999999999999
 31
0.0
  0
LINE
  5
100004E8
102
{ACAD_XDICTIONARY
360
100004E9
102
}
330
1F
100
AcDbEntity
  8
MODELSKETCH_VISIBLE
100
AcDbLine
 10
-14.0
 20
22.00000000000002
 30
0.0
 11
-11.00000000000002
 21
22.00000000000002
 31
0.0
  0
ARC
  5
100004EB
102
{ACAD_XDICTIONARY
360
100004EC
102
}
330
1F
100
AcDbEntity
  8
MODELSKETCH_VISIBLE
100
AcDbCircle
 10
-35.00000000000002
 20
-4.999999999999984
 30
0.0
 40
1.000000000000016
100
AcDbArc
 50
270.0
 51
0.0
  0
ARC
  5
100004EE
102
{ACAD_XDICTIONARY
360
100004EF
102
}
330
1F
100
AcDbEntity
  8
MODELSKETCH_VISIBLE
100
AcDbCircle
 10
-34.99999999999999
 20
5.000000000000008
 30
0.0
 40
1.000000000000016
100
AcDbArc
 50
0.0
 51
90.0
  0
ARC
  5
100004F1
102
{ACAD_XDICTIONARY
360
100004F2
102
}
330
1F
100
AcDbEntity
  8
MODELSKETCH_VISIBLE
100
AcDbCircle
 10
-33.0
 20
-4.999999999999999
 30
0.0
 40
1.00000000000001
100
AcDbArc
 50
90.0000000000004
 51
179.9999999999993
  0
LINE
  5
100004F4
102
{ACAD_XDICTIONARY
360
100004F5
102
}
330
1F
100
AcDbEntity
  8
MODELSKETCH_VISIBLE
100
AcDbLine
 10
-27.99999999999998
 20
4.000000000000012
 30
0.0
 11
-32.99999999999997
 21
4.000000000000009
 31
0.0
  0
LINE
  5
100004F7
102
{ACAD_XDICTIONARY
360
100004F8
102
}
330
1F
100
AcDbEntity
  8
MODELSKETCH_VISIBLE
100
AcDbLine
 10
-35.0
 20
29.00000000000001
 30
0.0
 11
-37.99999999999999
 21
29.00000000000001
 31
0.0
  0
ARC
  5
100004FA
102
{ACAD_XDICTIONARY
360
100004FB
102
}
330
1F
100
AcDbEntity
  8
MODELSKETCH_VISIBLE
100
AcDbCircle
 10
-14.00000000000002
 20
-45.99999999999999
 30
0.0
 40
1.000000000000015
100
AcDbArc
 50
90.0
 51
180.0
  0
LINE
  5
100004FD
102
{ACAD_XDICTIONARY
360
100004FE
102
}
330
1F
100
AcDbEntity
  8
MODELSKETCH_VISIBLE
100
AcDbLine
 10
44.99999999999999
 20
4.000000000000024
 30
0.0
 11
39.99999999999999
 21
4.000000000000021
 31
0.0
  0
LINE
  5
10000500
102
{ACAD_XDICTIONARY
360
10000501
102
}
330
1F
100
AcDbEntity
  8
MODELSKETCH_VISIBLE
100
AcDbLine
 10
-2.000000000000011
 20
45.00000000000003
 30
0.0
 11
-1.999999999999996
 21
22.00000000000002
 31
0.0
  0
ARC
  5
10000503
102
{ACAD_XDICTIONARY
360
10000504
102
}
330
1F
100
AcDbEntity
  8
MODELSKETCH_VISIBLE
100
AcDbCircle
 10
-34.99999999999999
 20
30.00000000000001
 30
0.0
 40
1.000000000000013
100
AcDbArc
 50
269.9999999999996
 51
0.0
  0
ARC
  5
10000506
102
{ACAD_XDICTIONARY
360
10000507
102
}
330
1F
100
AcDbEntity
  8
MODELSKETCH_VISIBLE
100
AcDbCircle
 10
-11.00000000000002
 20
21.00000000000002
 30
0.0
 40
1.000000000000015
100
AcDbArc
 50
0.0
 51
90.0
  0
LINE
  5
10000509
102
{ACAD_XDICTIONARY
360
1000050A
102
}
330
1F
100
AcDbEntity
  8
MODELSKETCH_VISIBLE
100
AcDbLine
 10
-21.00000000000002
 20
47.00000000000001
 30
0.0
 11
-16.00000000000002
 21
47.00000000000001
 31
0.0
  0
ARC
  5
1000050C
102
{ACAD_XDICTIONARY
360
1000050D
102
}
330
1F
100
AcDbEntity
  8
MODELSKETCH_VISIBLE
100
AcDbCircle
 10
-37.99999999999999
 20
-29.99999999999999
 30
0.0
 40
1.000000000000015
100
AcDbArc
 50
90.0
 51
180.0
  0
LINE
  5
1000050F
102
{ACAD_XDICTIONARY
360
10000510
102
}
330
1F
100
AcDbEntity
  8
MODELSKETCH_VISIBLE
100
AcDbLine
 10
-44.99999999999998
 20
4.000000000000002
 30
0.0
 11
-39.99999999999998
 21
4.000000000000005
 31
0.0
  0
LINE
  5
10000512
102
{ACAD_XDICTIONARY
360
10000513
102
}
330
1F
100
AcDbEntity
  8
MODELSKETCH_VISIBLE
100
AcDbLine
 10
21.00000000000001
 20
-46.99999999999999
 30
0.0
 11
16.00000000000002
 21
-46.99999999999999
 31
0.0
  0
ARC
  5
10000515
102
{ACAD_XDICTIONARY
360
10000516
102
}
330
1F
100
AcDbEntity
  8
MODELSKETCH_VISIBLE
100
AcDbCircle
 10
11.00000000000001
 20
-20.99999999999999
 30
0.0
 40
1.000000000000015
100
AcDbArc
 50
180.0000000000006
 51
270.0
  0
LINE
  5
10000518
102
{ACAD_XDICTIONARY
360
10000519
102
}
330
1F
100
AcDbEntity
  8
MODELSKETCH_VISIBLE
100
AcDbLine
 10
-2.000000000000028
 20
-21.99999999999998
 30
0.0
 11
-2.000000000000013
 21
-44.99999999999999
 31
0.0
  0
LINE
  5
1000051B
102
{ACAD_XDICTIONARY
360
1000051C
102
}
330
1F
100
AcDbEntity
  8
MODELSKETCH_VISIBLE
100
AcDbLine
 10
22.99999999999999
 20
45.00000000000001
 30
0.0
 11
23.00000000000001
 21
22.00000000000001
 31
0.0
  0
LINE
  5
1000051E
102
{ACAD_XDICTIONARY
360
1000051F
102
}
330
1F
100
AcDbEntity
  8
MODELSKETCH_VISIBLE
100
AcDbLine
 10
-37.99999999999997
 20
6.000000000000008
 30
0.0
 11
-34.99999999999999
 21
6.000000000000012
 31
0.0
  0
LINE
  5
10000521
102
{ACAD_XDICTIONARY
360
10000522
102
}
330
1F
100
AcDbEntity
  8
MODELSKETCH_VISIBLE
100
AcDbLine
 10
44.99999999999997
 20
31.00000000000002
 30
0.0
 11
39.99999999999997
 21
31.00000000000002
 31
0.0
  0
ARC
  5
10000524
102
{ACAD_XDICTIONARY
360
10000525
102
}
330
1F
100
AcDbEntity
  8
MODELSKETCH_VISIBLE
100
AcDbCircle
 10
14.0
 20
-45.99999999999999
 30
0.0
 40
1.000000000000015
100
AcDbArc
 50
0.0
 51
90.0
  0
ARC
  5
10000527
102
{ACAD_XDICTIONARY
360
10000528
102
}
330
1F
100
AcDbEntity
  8
MODELSKETCH_VISIBLE
100
AcDbCircle
 10
8.999999999999991
 20
21.00000000000001
 30
0.0
 40
1.000000000000006
100
AcDbArc
 50
270.0000000000003
 51
0.0
  0
LINE
  5
1000052A
102
{ACAD_XDICTIONARY
360
1000052B
102
}
330
1F
100
AcDbEntity
  8
MODELSKETCH_VISIBLE
100
AcDbLine
 10
37.99999999999996
 20
29.00000000000002
 30
0.0
 11
34.99999999999998
 21
29.00000000000002
 31
0.0
  0
ARC
  5
1000052D
102
{ACAD_XDICTIONARY
360
1000052E
102
}
330
1F
100
AcDbEntity
  8
MODELSKETCH_VISIBLE
100
AcDbCircle
 10
-21.00000000000002
 20
45.00000000000001
 30
0.0
 40
2.000000000000012
100
AcDbArc
 50
90.0
 51
180.0
  0
ENDSEC
  0
SECTION
  2
OBJECTS
  0
DICTIONARY
  5
C
330
0
100
AcDbDictionary
  3
ACAD_GROUP
350
D
  3
ACAD_LAYOUT
350
1A
  3
ACAD_MATERIAL
350
43
  3
ACAD_MLEADERSTYLE
350
6B
  3
ACAD_MLINESTYLE
350
17
  3
ACAD_PLOTSETTINGS
350
19
  3
ACAD_SCALELIST
350
47
  3
ACAD_VISUALSTYLE
350
2A
  3
ACDBHEADERROUNDTRIPXREC
350
10000532
  3
ACDBVARIABLEDICTIONARY
350
10000553
  3
DWGPROPS
350
1000055A
  3
ONSHAPE_DATA
350
10000001
  0
DICTIONARY
  5
1000055B
330
8
100
AcDbDictionary
280
     1
  3
ACAD_XREC_ROUNDTRIP
360
1000055C
  0
DICTIONARY
  5
10000530
330
1F
100
AcDbDictionary
280
     1
  3
ACAD_SORTENTS
360
10000531
  0
DICTIONARY
  5
10000051
330
10000050
100
AcDbDictionary
280
     1
  3
BTDETID
360
10000052
  0
DICTIONARY
  5
10000054
330
10000053
100
AcDbDictionary
280
     1
  3
BTDETID
360
10000055
  0
DICTIONARY
  5
10000057
330
10000056
100
AcDbDictionary
280
     1
  3
BTDETID
360
10000058
  0
DICTIONARY
  5
1000005A
330
10000059
100
AcDbDictionary
280
     1
  3
BTDETID
360
1000005B
  0
DICTIONARY
  5
1000005D
330
1000005C
100
AcDbDictionary
280
     1
  3
BTDETID
360
1000005E
  0
DICTIONARY
  5
10000060
330
1000005F
100
AcDbDictionary
280
     1
  3
BTDETID
360
10000061
  0
DICTIONARY
  5
10000063
330
10000062
100
AcDbDictionary
280
     1
  3
BTDETID
360
10000064
  0
DICTIONARY
  5
10000066
330
10000065
100
AcDbDictionary
280
     1
  3
BTDETID
360
10000067
  0
DICTIONARY
  5
10000069
330
10000068
100
AcDbDictionary
280
     1
  3
BTDETID
360
1000006A
  0
DICTIONARY
  5
1000006C
330
1000006B
100
AcDbDictionary
280
     1
  3
BTDETID
360
1000006D
  0
DICTIONARY
  5
1000006F
330
1000006E
100
AcDbDictionary
280
     1
  3
BTDETID
360
10000070
  0
DICTIONARY
  5
10000072
330
10000071
100
AcDbDictionary
280
     1
  3
BTDETID
360
10000073
  0
DICTIONARY
  5
10000075
330
10000074
100
AcDbDictionary
280
     1
  3
BTDETID
360
10000076
  0
DICTIONARY
  5
10000078
330
10000077
100
AcDbDictionary
280
     1
  3
BTDETID
360
10000079
  0
DICTIONARY
  5
1000007B
330
1000007A
100
AcDbDictionary
280
     1
  3
BTDETID
360
1000007C
  0
DICTIONARY
  5
1000007E
330
1000007D
100
AcDbDictionary
280
     1
  3
BTDETID
360
1000007F
  0
DICTIONARY
  5
10000081
330
10000080
100
AcDbDictionary
280
     1
  3
BTDETID
360
10000082
  0
DICTIONARY
  5
10000084
330
10000083
100
AcDbDictionary
280
     1
  3
BTDETID
360
10000085
  0
DICTIONARY
  5
10000087
330
10000086
100
AcDbDictionary
280
     1
  3
BTDETID
360
10000088
  0
DICTIONARY
  5
1000008A
330
10000089
100
AcDbDictionary
280
     1
  3
BTDETID
360
1000008B
  0
DICTIONARY
  5
1000008D
330
1000008C
100
AcDbDictionary
280
     1
  3
BTDETID
360
1000008E
  0
DICTIONARY
  5
10000090
330
1000008F
100
AcDbDictionary
280
     1
  3
BTDETID
360
10000091
  0
DICTIONARY
  5
10000093
330
10000092
100
AcDbDictionary
280
     1
  3
BTDETID
360
10000094
  0
DICTIONARY
  5
10000096
330
10000095
100
AcDbDictionary
280
     1
  3
BTDETID
360
10000097
  0
DICTIONARY
  5
10000099
330
10000098
100
AcDbDictionary
280
     1
  3
BTDETID
360
1000009A
  0
DICTIONARY
  5
1000009C
330
1000009B
100
AcDbDictionary
280
     1
  3
BTDETID
360
1000009D
  0
DICTIONARY
  5
1000009F
330
1000009E
100
AcDbDictionary
280
     1
  3
BTDETID
360
100000A0
  0
DICTIONARY
  5
100000A2
330
100000A1
100
AcDbDictionary
280
     1
  3
BTDETID
360
100000A3
  0
DICTIONARY
  5
100000A5
330
100000A4
100
AcDbDictionary
280
     1
  3
BTDETID
360
100000A6
  0
DICTIONARY
  5
100000A8
330
100000A7
100
AcDbDictionary
280
     1
  3
BTDETID
360
100000A9
  0
DICTIONARY
  5
100000AB
330
100000AA
100
AcDbDictionary
280
     1
  3
BTDETID
360
100000AC
  0
DICTIONARY
  5
100000AE
330
100000AD
100
AcDbDictionary
280
     1
  3
BTDETID
360
100000AF
  0
DICTIONARY
  5
100000B1
330
100000B0
100
AcDbDictionary
280
     1
  3
BTDETID
360
100000B2
  0
DICTIONARY
  5
100000B4
330
100000B3
100
AcDbDictionary
280
     1
  3
BTDETID
360
100000B5
  0
DICTIONARY
  5
100000B7
330
100000B6
100
AcDbDictionary
280
     1
  3
BTDETID
360
100000B8
  0
DICTIONARY
  5
100000BA
330
100000B9
100
AcDbDictionary
280
     1
  3
BTDETID
360
100000BB
  0
DICTIONARY
  5
100000BD
330
100000BC
100
AcDbDictionary
280
     1
  3
BTDETID
360
100000BE
  0
DICTIONARY
  5
100000C0
330
100000BF
100
AcDbDictionary
280
     1
  3
BTDETID
360
100000C1
  0
DICTIONARY
  5
100000C3
330
100000C2
100
AcDbDictionary
280
     1
  3
BTDETID
360
100000C4
  0
DICTIONARY
  5
100000C6
330
100000C5
100
AcDbDictionary
280
     1
  3
BTDETID
360
100000C7
  0
DICTIONARY
  5
100000C9
330
100000C8
100
AcDbDictionary
280
     1
  3
BTDETID
360
100000CA
  0
DICTIONARY
  5
100000CC
330
100000CB
100
AcDbDictionary
280
     1
  3
BTDETID
360
100000CD
  0
DICTIONARY
  5
100000CF
330
100000CE
100
AcDbDictionary
280
     1
  3
BTDETID
360
100000D0
  0
DICTIONARY
  5
100000D2
330
100000D1
100
AcDbDictionary
280
     1
  3
BTDETID
360
100000D3
  0
DICTIONARY
  5
100000D5
330
100000D4
100
AcDbDictionary
280
     1
  3
BTDETID
360
100000D6
  0
DICTIONARY
  5
100000D8
330
100000D7
100
AcDbDictionary
280
     1
  3
BTDETID
360
100000D9
  0
DICTIONARY
  5
100000DB
330
100000DA
100
AcDbDictionary
280
     1
  3
BTDETID
360
100000DC
  0
DICTIONARY
  5
100000DE
330
100000DD
100
AcDbDictionary
280
     1
  3
BTDETID
360
100000DF
  0
DICTIONARY
  5
100000E1
330
100000E0
100
AcDbDictionary
280
     1
  3
BTDETID
360
100000E2
  0
DICTIONARY
  5
100000E4
330
100000E3
100
AcDbDictionary
280
     1
  3
BTDETID
360
100000E5
  0
DICTIONARY
  5
100000E7
330
100000E6
100
AcDbDictionary
280
     1
  3
BTDETID
360
100000E8
  0
DICTIONARY
  5
100000EA
330
100000E9
100
AcDbDictionary
280
     1
  3
BTDETID
360
100000EB
  0
DICTIONARY
  5
100000ED
330
100000EC
100
AcDbDictionary
280
     1
  3
BTDETID
360
100000EE
  0
DICTIONARY
  5
100000F0
330
100000EF
100
AcDbDictionary
280
     1
  3
BTDETID
360
100000F1
  0
DICTIONARY
  5
100000F3
330
100000F2
100
AcDbDictionary
280
     1
  3
BTDETID
360
100000F4
  0
DICTIONARY
  5
100000F6
330
100000F5
100
AcDbDictionary
280
     1
  3
BTDETID
360
100000F7
  0
DICTIONARY
  5
100000F9
330
100000F8
100
AcDbDictionary
280
     1
  3
BTDETID
360
100000FA
  0
DICTIONARY
  5
100000FC
330
100000FB
100
AcDbDictionary
280
     1
  3
BTDETID
360
100000FD
  0
DICTIONARY
  5
100000FF
330
100000FE
100
AcDbDictionary
280
     1
  3
BTDETID
360
10000100
  0
DICTIONARY
  5
10000102
330
10000101
100
AcDbDictionary
280
     1
  3
BTDETID
360
10000103
  0
DICTIONARY
  5
10000105
330
10000104
100
AcDbDictionary
280
     1
  3
BTDETID
360
10000106
  0
DICTIONARY
  5
10000108
330
10000107
100
AcDbDictionary
280
     1
  3
BTDETID
360
10000109
  0
DICTIONARY
  5
1000010B
330
1000010A
100
AcDbDictionary
280
     1
  3
BTDETID
360
1000010C
  0
DICTIONARY
  5
1000010E
330
1000010D
100
AcDbDictionary
280
     1
  3
BTDETID
360
1000010F
  0
DICTIONARY
  5
10000111
330
10000110
100
AcDbDictionary
280
     1
  3
BTDETID
360
10000112
  0
DICTIONARY
  5
10000114
330
10000113
100
AcDbDictionary
280
     1
  3
BTDETID
360
10000115
  0
DICTIONARY
  5
10000117
330
10000116
100
AcDbDictionary
280
     1
  3
BTDETID
360
10000118
  0
DICTIONARY
  5
1000011A
330
10000119
100
AcDbDictionary
280
     1
  3
BTDETID
360
1000011B
  0
DICTIONARY
  5
1000011D
330
1000011C
100
AcDbDictionary
280
     1
  3
BTDETID
360
1000011E
  0
DICTIONARY
  5
10000120
330
1000011F
100
AcDbDictionary
280
     1
  3
BTDETID
360
10000121
  0
DICTIONARY
  5
10000123
330
10000122
100
AcDbDictionary
280
     1
  3
BTDETID
360
10000124
  0
DICTIONARY
  5
10000126
330
10000125
100
AcDbDictionary
280
     1
  3
BTDETID
360
10000127
  0
DICTIONARY
  5
10000129
330
10000128
100
AcDbDictionary
280
     1
  3
BTDETID
360
1000012A
  0
DICTIONARY
  5
1000012C
330
1000012B
100
AcDbDictionary
280
     1
  3
BTDETID
360
1000012D
  0
DICTIONARY
  5
1000012F
330
1000012E
100
AcDbDictionary
280
     1
  3
BTDETID
360
10000130
  0
DICTIONARY
  5
10000132
330
10000131
100
AcDbDictionary
280
     1
  3
BTDETID
360
10000133
  0
DICTIONARY
  5
10000135
330
10000134
100
AcDbDictionary
280
     1
  3
BTDETID
360
10000136
  0
DICTIONARY
  5
10000138
330
10000137
100
AcDbDictionary
280
     1
  3
BTDETID
360
10000139
  0
DICTIONARY
  5
1000013B
330
1000013A
100
AcDbDictionary
280
     1
  3
BTDETID
360
1000013C
  0
DICTIONARY
  5
1000013E
330
1000013D
100
AcDbDictionary
280
     1
  3
BTDETID
360
1000013F
  0
DICTIONARY
  5
10000141
330
10000140
100
AcDbDictionary
280
     1
  3
BTDETID
360
10000142
  0
DICTIONARY
  5
10000144
330
10000143
100
AcDbDictionary
280
     1
  3
BTDETID
360
10000145
  0
DICTIONARY
  5
10000147
330
10000146
100
AcDbDictionary
280
     1
  3
BTDETID
360
10000148
  0
DICTIONARY
  5
1000014A
330
10000149
100
AcDbDictionary
280
     1
  3
BTDETID
360
1000014B
  0
DICTIONARY
  5
1000014D
330
1000014C
100
AcDbDictionary
280
     1
  3
BTDETID
360
1000014E
  0
DICTIONARY
  5
10000150
330
1000014F
100
AcDbDictionary
280
     1
  3
BTDETID
360
10000151
  0
DICTIONARY
  5
10000153
330
10000152
100
AcDbDictionary
280
     1
  3
BTDETID
360
10000154
  0
DICTIONARY
  5
10000156
330
10000155
100
AcDbDictionary
280
     1
  3
BTDETID
360
10000157
  0
DICTIONARY
  5
10000159
330
10000158
100
AcDbDictionary
280
     1
  3
BTDETID
360
1000015A
  0
DICTIONARY
  5
1000015C
330
1000015B
100
AcDbDictionary
280
     1
  3
BTDETID
360
1000015D
  0
DICTIONARY
  5
1000015F
330
1000015E
100
AcDbDictionary
280
     1
  3
BTDETID
360
10000160
  0
DICTIONARY
  5
10000162
330
10000161
100
AcDbDictionary
280
     1
  3
BTDETID
360
10000163
  0
DICTIONARY
  5
10000165
330
10000164
100
AcDbDictionary
280
     1
  3
BTDETID
360
10000166
  0
DICTIONARY
  5
10000168
330
10000167
100
AcDbDictionary
280
     1
  3
BTDETID
360
10000169
  0
DICTIONARY
  5
1000016B
330
1000016A
100
AcDbDictionary
280
     1
  3
BTDETID
360
1000016C
  0
DICTIONARY
  5
1000016E
330
1000016D
100
AcDbDictionary
280
     1
  3
BTDETID
360
1000016F
  0
DICTIONARY
  5
10000171
330
10000170
100
AcDbDictionary
280
     1
  3
BTDETID
360
10000172
  0
DICTIONARY
  5
10000174
330
10000173
100
AcDbDictionary
280
     1
  3
BTDETID
360
10000175
  0
DICTIONARY
  5
10000177
330
10000176
100
AcDbDictionary
280
     1
  3
BTDETID
360
10000178
  0
DICTIONARY
  5
1000017A
330
10000179
100
AcDbDictionary
280
     1
  3
BTDETID
360
1000017B
  0
DICTIONARY
  5
1000017D
330
1000017C
100
AcDbDictionary
280
     1
  3
BTDETID
360
1000017E
  0
DICTIONARY
  5
10000180
330
1000017F
100
AcDbDictionary
280
     1
  3
BTDETID
360
10000181
  0
DICTIONARY
  5
10000183
330
10000182
100
AcDbDictionary
280
     1
  3
BTDETID
360
10000184
  0
DICTIONARY
  5
10000186
330
10000185
100
AcDbDictionary
280
     1
  3
BTDETID
360
10000187
  0
DICTIONARY
  5
10000189
330
10000188
100
AcDbDictionary
280
     1
  3
BTDETID
360
1000018A
  0
DICTIONARY
  5
1000018C
330
1000018B
100
AcDbDictionary
280
     1
  3
BTDETID
360
1000018D
  0
DICTIONARY
  5
1000018F
330
1000018E
100
AcDbDictionary
280
     1
  3
BTDETID
360
10000190
  0
DICTIONARY
  5
10000192
330
10000191
100
AcDbDictionary
280
     1
  3
BTDETID
360
10000193
  0
DICTIONARY
  5
10000195
330
10000194
100
AcDbDictionary
280
     1
  3
BTDETID
360
10000196
  0
DICTIONARY
  5
10000198
330
10000197
100
AcDbDictionary
280
     1
  3
BTDETID
360
10000199
  0
DICTIONARY
  5
1000019B
330
1000019A
100
AcDbDictionary
280
     1
  3
BTDETID
360
1000019C
  0
DICTIONARY
  5
1000019E
330
1000019D
100
AcDbDictionary
280
     1
  3
BTDETID
360
1000019F
  0
DICTIONARY
  5
100001A1
330
100001A0
100
AcDbDictionary
280
     1
  3
BTDETID
360
100001A2
  0
DICTIONARY
  5
100001A4
330
100001A3
100
AcDbDictionary
280
     1
  3
BTDETID
360
100001A5
  0
DICTIONARY
  5
100001A7
330
100001A6
100
AcDbDictionary
280
     1
  3
BTDETID
360
100001A8
  0
DICTIONARY
  5
100001AA
330
100001A9
100
AcDbDictionary
280
     1
  3
BTDETID
360
100001AB
  0
DICTIONARY
  5
100001AD
330
100001AC
100
AcDbDictionary
280
     1
  3
BTDETID
360
100001AE
  0
DICTIONARY
  5
100001B0
330
100001AF
100
AcDbDictionary
280
     1
  3
BTDETID
360
100001B1
  0
DICTIONARY
  5
100001B3
330
100001B2
100
AcDbDictionary
280
     1
  3
BTDETID
360
100001B4
  0
DICTIONARY
  5
100001B6
330
100001B5
100
AcDbDictionary
280
     1
  3
BTDETID
360
100001B7
  0
DICTIONARY
  5
100001B9
330
100001B8
100
AcDbDictionary
280
     1
  3
BTDETID
360
100001BA
  0
DICTIONARY
  5
100001BC
330
100001BB
100
AcDbDictionary
280
     1
  3
BTDETID
360
100001BD
  0
DICTIONARY
  5
100001BF
330
100001BE
100
AcDbDictionary
280
     1
  3
BTDETID
360
100001C0
  0
DICTIONARY
  5
100001C2
330
100001C1
100
AcDbDictionary
280
     1
  3
BTDETID
360
100001C3
  0
DICTIONARY
  5
100001C5
330
100001C4
100
AcDbDictionary
280
     1
  3
BTDETID
360
100001C6
  0
DICTIONARY
  5
100001C8
330
100001C7
100
AcDbDictionary
280
     1
  3
BTDETID
360
100001C9
  0
DICTIONARY
  5
100001CB
330
100001CA
100
AcDbDictionary
280
     1
  3
BTDETID
360
100001CC
  0
DICTIONARY
  5
100001CE
330
100001CD
100
AcDbDictionary
280
     1
  3
BTDETID
360
100001CF
  0
DICTIONARY
  5
100001D1
330
100001D0
100
AcDbDictionary
280
     1
  3
BTDETID
360
100001D2
  0
DICTIONARY
  5
100001D4
330
100001D3
100
AcDbDictionary
280
     1
  3
BTDETID
360
100001D5
  0
DICTIONARY
  5
100001D7
330
100001D6
100
AcDbDictionary
280
     1
  3
BTDETID
360
100001D8
  0
DICTIONARY
  5
100001DA
330
100001D9
100
AcDbDictionary
280
     1
  3
BTDETID
360
100001DB
  0
DICTIONARY
  5
100001DD
330
100001DC
100
AcDbDictionary
280
     1
  3
BTDETID
360
100001DE
  0
DICTIONARY
  5
100001E0
330
100001DF
100
AcDbDictionary
280
     1
  3
BTDETID
360
100001E1
  0
DICTIONARY
  5
100001E3
330
100001E2
100
AcDbDictionary
280
     1
  3
BTDETID
360
100001E4
  0
DICTIONARY
  5
100001E6
330
100001E5
100
AcDbDictionary
280
     1
  3
BTDETID
360
100001E7
  0
DICTIONARY
  5
100001E9
330
100001E8
100
AcDbDictionary
280
     1
  3
BTDETID
360
100001EA
  0
DICTIONARY
  5
100001EC
330
100001EB
100
AcDbDictionary
280
     1
  3
BTDETID
360
100001ED
  0
DICTIONARY
  5
100001EF
330
100001EE
100
AcDbDictionary
280
     1
  3
BTDETID
360
100001F0
  0
DICTIONARY
  5
100001F2
330
100001F1
100
AcDbDictionary
280
     1
  3
BTDETID
360
100001F3
  0
DICTIONARY
  5
100001F5
330
100001F4
100
AcDbDictionary
280
     1
  3
BTDETID
360
100001F6
  0
DICTIONARY
  5
100001F8
330
100001F7
100
AcDbDictionary
280
     1
  3
BTDETID
360
100001F9
  0
DICTIONARY
  5
100001FB
330
100001FA
100
AcDbDictionary
280
     1
  3
BTDETID
360
100001FC
  0
DICTIONARY
  5
100001FE
330
100001FD
100
AcDbDictionary
280
     1
  3
BTDETID
360
100001FF
  0
DICTIONARY
  5
10000201
330
10000200
100
AcDbDictionary
280
     1
  3
BTDETID
360
10000202
  0
DICTIONARY
  5
10000204
330
10000203
100
AcDbDictionary
280
     1
  3
BTDETID
360
10000205
  0
DICTIONARY
  5
10000207
330
10000206
100
AcDbDictionary
280
     1
  3
BTDETID
360
10000208
  0
DICTIONARY
  5
1000020A
330
10000209
100
AcDbDictionary
280
     1
  3
BTDETID
360
1000020B
  0
DICTIONARY
  5
1000020D
330
1000020C
100
AcDbDictionary
280
     1
  3
BTDETID
360
1000020E
  0
DICTIONARY
  5
10000210
330
1000020F
100
AcDbDictionary
280
     1
  3
BTDETID
360
10000211
  0
DICTIONARY
  5
10000213
330
10000212
100
AcDbDictionary
280
     1
  3
BTDETID
360
10000214
  0
DICTIONARY
  5
10000216
330
10000215
100
AcDbDictionary
280
     1
  3
BTDETID
360
10000217
  0
DICTIONARY
  5
10000219
330
10000218
100
AcDbDictionary
280
     1
  3
BTDETID
360
1000021A
  0
DICTIONARY
  5
1000021C
330
1000021B
100
AcDbDictionary
280
     1
  3
BTDETID
360
1000021D
  0
DICTIONARY
  5
1000021F
330
1000021E
100
AcDbDictionary
280
     1
  3
BTDETID
360
10000220
  0
DICTIONARY
  5
10000222
330
10000221
100
AcDbDictionary
280
     1
  3
BTDETID
360
10000223
  0
DICTIONARY
  5
10000225
330
10000224
100
AcDbDictionary
280
     1
  3
BTDETID
360
10000226
  0
DICTIONARY
  5
10000228
330
10000227
100
AcDbDictionary
280
     1
  3
BTDETID
360
10000229
  0
DICTIONARY
  5
1000022B
330
1000022A
100
AcDbDictionary
280
     1
  3
BTDETID
360
1000022C
  0
DICTIONARY
  5
1000022E
330
1000022D
100
AcDbDictionary
280
     1
  3
BTDETID
360
1000022F
  0
DICTIONARY
  5
10000231
330
10000230
100
AcDbDictionary
280
     1
  3
BTDETID
360
10000232
  0
DICTIONARY
  5
10000234
330
10000233
100
AcDbDictionary
280
     1
  3
BTDETID
360
10000235
  0
DICTIONARY
  5
10000237
330
10000236
100
AcDbDictionary
280
     1
  3
BTDETID
360
10000238
  0
DICTIONARY
  5
1000023A
330
10000239
100
AcDbDictionary
280
     1
  3
BTDETID
360
1000023B
  0
DICTIONARY
  5
1000023D
330
1000023C
100
AcDbDictionary
280
     1
  3
BTDETID
360
1000023E
  0
DICTIONARY
  5
10000240
330
1000023F
100
AcDbDictionary
280
     1
  3
BTDETID
360
10000241
  0
DICTIONARY
  5
10000243
330
10000242
100
AcDbDictionary
280
     1
  3
BTDETID
360
10000244
  0
DICTIONARY
  5
10000246
330
10000245
100
AcDbDictionary
280
     1
  3
BTDETID
360
10000247
  0
DICTIONARY
  5
10000249
330
10000248
100
AcDbDictionary
280
     1
  3
BTDETID
360
1000024A
  0
DICTIONARY
  5
1000024C
330
1000024B
100
AcDbDictionary
280
     1
  3
BTDETID
360
1000024D
  0
DICTIONARY
  5
1000024F
330
1000024E
100
AcDbDictionary
280
     1
  3
BTDETID
360
10000250
  0
DICTIONARY
  5
10000252
330
10000251
100
AcDbDictionary
280
     1
  3
BTDETID
360
10000253
  0
DICTIONARY
  5
10000255
330
10000254
100
AcDbDictionary
280
     1
  3
BTDETID
360
10000256
  0
DICTIONARY
  5
10000258
330
10000257
100
AcDbDictionary
280
     1
  3
BTDETID
360
10000259
  0
DICTIONARY
  5
1000025B
330
1000025A
100
AcDbDictionary
280
     1
  3
BTDETID
360
1000025C
  0
DICTIONARY
  5
1000025E
330
1000025D
100
AcDbDictionary
280
     1
  3
BTDETID
360
1000025F
  0
DICTIONARY
  5
10000261
330
10000260
100
AcDbDictionary
280
     1
  3
BTDETID
360
10000262
  0
DICTIONARY
  5
10000264
330
10000263
100
AcDbDictionary
280
     1
  3
BTDETID
360
10000265
  0
DICTIONARY
  5
10000267
330
10000266
100
AcDbDictionary
280
     1
  3
BTDETID
360
10000268
  0
DICTIONARY
  5
1000026A
330
10000269
100
AcDbDictionary
280
     1
  3
BTDETID
360
1000026B
  0
DICTIONARY
  5
1000026D
330
1000026C
100
AcDbDictionary
280
     1
  3
BTDETID
360
1000026E
  0
DICTIONARY
  5
10000270
330
1000026F
100
AcDbDictionary
280
     1
  3
BTDETID
360
10000271
  0
DICTIONARY
  5
10000273
330
10000272
100
AcDbDictionary
280
     1
  3
BTDETID
360
10000274
  0
DICTIONARY
  5
10000276
330
10000275
100
AcDbDictionary
280
     1
  3
BTDETID
360
10000277
  0
DICTIONARY
  5
10000279
330
10000278
100
AcDbDictionary
280
     1
  3
BTDETID
360
1000027A
  0
DICTIONARY
  5
1000027C
330
1000027B
100
AcDbDictionary
280
     1
  3
BTDETID
360
1000027D
  0
DICTIONARY
  5
1000027F
330
1000027E
100
AcDbDictionary
280
     1
  3
BTDETID
360
10000280
  0
DICTIONARY
  5
10000282
330
10000281
100
AcDbDictionary
280
     1
  3
BTDETID
360
10000283
  0
DICTIONARY
  5
10000285
330
10000284
100
AcDbDictionary
280
     1
  3
BTDETID
360
10000286
  0
DICTIONARY
  5
10000288
330
10000287
100
AcDbDictionary
280
     1
  3
BTDETID
360
10000289
  0
DICTIONARY
  5
1000028B
330
1000028A
100
AcDbDictionary
280
     1
  3
BTDETID
360
1000028C
  0
DICTIONARY
  5
1000028E
330
1000028D
100
AcDbDictionary
280
     1
  3
BTDETID
360
1000028F
  0
DICTIONARY
  5
10000291
330
10000290
100
AcDbDictionary
280
     1
  3
BTDETID
360
10000292
  0
DICTIONARY
  5
10000294
330
10000293
100
AcDbDictionary
280
     1
  3
BTDETID
360
10000295
  0
DICTIONARY
  5
10000297
330
10000296
100
AcDbDictionary
280
     1
  3
BTDETID
360
10000298
  0
DICTIONARY
  5
1000029A
330
10000299
100
AcDbDictionary
280
     1
  3
BTDETID
360
1000029B
  0
DICTIONARY
  5
1000029D
330
1000029C
100
AcDbDictionary
280
     1
  3
BTDETID
360
1000029E
  0
DICTIONARY
  5
100002A0
330
1000029F
100
AcDbDictionary
280
     1
  3
BTDETID
360
100002A1
  0
DICTIONARY
  5
100002A3
330
100002A2
100
AcDbDictionary
280
     1
  3
BTDETID
360
100002A4
  0
DICTIONARY
  5
100002A6
330
100002A5
100
AcDbDictionary
280
     1
  3
BTDETID
360
100002A7
  0
DICTIONARY
  5
100002A9
330
100002A8
100
AcDbDictionary
280
     1
  3
BTDETID
360
100002AA
  0
DICTIONARY
  5
100002AC
330
100002AB
100
AcDbDictionary
280
     1
  3
BTDETID
360
100002AD
  0
DICTIONARY
  5
100002AF
330
100002AE
100
AcDbDictionary
280
     1
  3
BTDETID
360
100002B0
  0
DICTIONARY
  5
100002B2
330
100002B1
100
AcDbDictionary
280
     1
  3
BTDETID
360
100002B3
  0
DICTIONARY
  5
100002B5
330
100002B4
100
AcDbDictionary
280
     1
  3
BTDETID
360
100002B6
  0
DICTIONARY
  5
100002B8
330
100002B7
100
AcDbDictionary
280
     1
  3
BTDETID
360
100002B9
  0
DICTIONARY
  5
100002BB
330
100002BA
100
AcDbDictionary
280
     1
  3
BTDETID
360
100002BC
  0
DICTIONARY
  5
100002BE
330
100002BD
100
AcDbDictionary
280
     1
  3
BTDETID
360
100002BF
  0
DICTIONARY
  5
100002C1
330
100002C0
100
AcDbDictionary
280
     1
  3
BTDETID
360
100002C2
  0
DICTIONARY
  5
100002C4
330
100002C3
100
AcDbDictionary
280
     1
  3
BTDETID
360
100002C5
  0
DICTIONARY
  5
100002C7
330
100002C6
100
AcDbDictionary
280
     1
  3
BTDETID
360
100002C8
  0
DICTIONARY
  5
100002CA
330
100002C9
100
AcDbDictionary
280
     1
  3
BTDETID
360
100002CB
  0
DICTIONARY
  5
100002CD
330
100002CC
100
AcDbDictionary
280
     1
  3
BTDETID
360
100002CE
  0
DICTIONARY
  5
100002D0
330
100002CF
100
AcDbDictionary
280
     1
  3
BTDETID
360
100002D1
  0
DICTIONARY
  5
100002D3
330
100002D2
100
AcDbDictionary
280
     1
  3
BTDETID
360
100002D4
  0
DICTIONARY
  5
100002D6
330
100002D5
100
AcDbDictionary
280
     1
  3
BTDETID
360
100002D7
  0
DICTIONARY
  5
100002D9
330
100002D8
100
AcDbDictionary
280
     1
  3
BTDETID
360
100002DA
  0
DICTIONARY
  5
100002DC
330
100002DB
100
AcDbDictionary
280
     1
  3
BTDETID
360
100002DD
  0
DICTIONARY
  5
100002DF
330
100002DE
100
AcDbDictionary
280
     1
  3
BTDETID
360
100002E0
  0
DICTIONARY
  5
100002E2
330
100002E1
100
AcDbDictionary
280
     1
  3
BTDETID
360
100002E3
  0
DICTIONARY
  5
100002E5
330
100002E4
100
AcDbDictionary
280
     1
  3
BTDETID
360
100002E6
  0
DICTIONARY
  5
100002E8
330
100002E7
100
AcDbDictionary
280
     1
  3
BTDETID
360
100002E9
  0
DICTIONARY
  5
100002EB
330
100002EA
100
AcDbDictionary
280
     1
  3
BTDETID
360
100002EC
  0
DICTIONARY
  5
100002EE
330
100002ED
100
AcDbDictionary
280
     1
  3
BTDETID
360
100002EF
  0
DICTIONARY
  5
100002F1
330
100002F0
100
AcDbDictionary
280
     1
  3
BTDETID
360
100002F2
  0
DICTIONARY
  5
100002F4
330
100002F3
100
AcDbDictionary
280
     1
  3
BTDETID
360
100002F5
  0
DICTIONARY
  5
100002F7
330
100002F6
100
AcDbDictionary
280
     1
  3
BTDETID
360
100002F8
  0
DICTIONARY
  5
100002FA
330
100002F9
100
AcDbDictionary
280
     1
  3
BTDETID
360
100002FB
  0
DICTIONARY
  5
100002FD
330
100002FC
100
AcDbDictionary
280
     1
  3
BTDETID
360
100002FE
  0
DICTIONARY
  5
10000300
330
100002FF
100
AcDbDictionary
280
     1
  3
BTDETID
360
10000301
  0
DICTIONARY
  5
10000303
330
10000302
100
AcDbDictionary
280
     1
  3
BTDETID
360
10000304
  0
DICTIONARY
  5
10000306
330
10000305
100
AcDbDictionary
280
     1
  3
BTDETID
360
10000307
  0
DICTIONARY
  5
10000309
330
10000308
100
AcDbDictionary
280
     1
  3
BTDETID
360
1000030A
  0
DICTIONARY
  5
1000030C
330
1000030B
100
AcDbDictionary
280
     1
  3
BTDETID
360
1000030D
  0
DICTIONARY
  5
1000030F
330
1000030E
100
AcDbDictionary
280
     1
  3
BTDETID
360
10000310
  0
DICTIONARY
  5
10000312
330
10000311
100
AcDbDictionary
280
     1
  3
BTDETID
360
10000313
  0
DICTIONARY
  5
10000315
330
10000314
100
AcDbDictionary
280
     1
  3
BTDETID
360
10000316
  0
DICTIONARY
  5
10000318
330
10000317
100
AcDbDictionary
280
     1
  3
BTDETID
360
10000319
  0
DICTIONARY
  5
1000031B
330
1000031A
100
AcDbDictionary
280
     1
  3
BTDETID
360
1000031C
  0
DICTIONARY
  5
1000031E
330
1000031D
100
AcDbDictionary
280
     1
  3
BTDETID
360
1000031F
  0
DICTIONARY
  5
10000321
330
10000320
100
AcDbDictionary
280
     1
  3
BTDETID
360
10000322
  0
DICTIONARY
  5
10000324
330
10000323
100
AcDbDictionary
280
     1
  3
BTDETID
360
10000325
  0
DICTIONARY
  5
10000327
330
10000326
100
AcDbDictionary
280
     1
  3
BTDETID
360
10000328
  0
DICTIONARY
  5
1000032A
330
10000329
100
AcDbDictionary
280
     1
  3
BTDETID
360
1000032B
  0
DICTIONARY
  5
1000032D
330
1000032C
100
AcDbDictionary
280
     1
  3
BTDETID
360
1000032E
  0
DICTIONARY
  5
10000330
330
1000032F
100
AcDbDictionary
280
     1
  3
BTDETID
360
10000331
  0
DICTIONARY
  5
10000333
330
10000332
100
AcDbDictionary
280
     1
  3
BTDETID
360
10000334
  0
DICTIONARY
  5
10000336
330
10000335
100
AcDbDictionary
280
     1
  3
BTDETID
360
10000337
  0
DICTIONARY
  5
10000339
330
10000338
100
AcDbDictionary
280
     1
  3
BTDETID
360
1000033A
  0
DICTIONARY
  5
1000033C
330
1000033B
100
AcDbDictionary
280
     1
  3
BTDETID
360
1000033D
  0
DICTIONARY
  5
1000033F
330
1000033E
100
AcDbDictionary
280
     1
  3
BTDETID
360
10000340
  0
DICTIONARY
  5
10000342
330
10000341
100
AcDbDictionary
280
     1
  3
BTDETID
360
10000343
  0
DICTIONARY
  5
10000345
330
10000344
100
AcDbDictionary
280
     1
  3
BTDETID
360
10000346
  0
DICTIONARY
  5
10000348
330
10000347
100
AcDbDictionary
280
     1
  3
BTDETID
360
10000349
  0
DICTIONARY
  5
1000034B
330
1000034A
100
AcDbDictionary
280
     1
  3
BTDETID
360
1000034C
  0
DICTIONARY
  5
1000034E
330
1000034D
100
AcDbDictionary
280
     1
  3
BTDETID
360
1000034F
  0
DICTIONARY
  5
10000351
330
10000350
100
AcDbDictionary
280
     1
  3
BTDETID
360
10000352
  0
DICTIONARY
  5
10000354
330
10000353
100
AcDbDictionary
280
     1
  3
BTDETID
360
10000355
  0
DICTIONARY
  5
10000357
330
10000356
100
AcDbDictionary
280
     1
  3
BTDETID
360
10000358
  0
DICTIONARY
  5
1000035A
330
10000359
100
AcDbDictionary
280
     1
  3
BTDETID
360
1000035B
  0
DICTIONARY
  5
1000035D
330
1000035C
100
AcDbDictionary
280
     1
  3
BTDETID
360
1000035E
  0
DICTIONARY
  5
10000360
330
1000035F
100
AcDbDictionary
280
     1
  3
BTDETID
360
10000361
  0
DICTIONARY
  5
10000363
330
10000362
100
AcDbDictionary
280
     1
  3
BTDETID
360
10000364
  0
DICTIONARY
  5
10000366
330
10000365
100
AcDbDictionary
280
     1
  3
BTDETID
360
10000367
  0
DICTIONARY
  5
10000369
330
10000368
100
AcDbDictionary
280
     1
  3
BTDETID
360
1000036A
  0
DICTIONARY
  5
1000036C
330
1000036B
100
AcDbDictionary
280
     1
  3
BTDETID
360
1000036D
  0
DICTIONARY
  5
1000036F
330
1000036E
100
AcDbDictionary
280
     1
  3
BTDETID
360
10000370
  0
DICTIONARY
  5
10000372
330
10000371
100
AcDbDictionary
280
     1
  3
BTDETID
360
10000373
  0
DICTIONARY
  5
10000375
330
10000374
100
AcDbDictionary
280
     1
  3
BTDETID
360
10000376
  0
DICTIONARY
  5
10000378
330
10000377
100
AcDbDictionary
280
     1
  3
BTDETID
360
10000379
  0
DICTIONARY
  5
1000037B
330
1000037A
100
AcDbDictionary
280
     1
  3
BTDETID
360
1000037C
  0
DICTIONARY
  5
1000037E
330
1000037D
100
AcDbDictionary
280
     1
  3
BTDETID
360
1000037F
  0
DICTIONARY
  5
10000381
330
10000380
100
AcDbDictionary
280
     1
  3
BTDETID
360
10000382
  0
DICTIONARY
  5
10000384
330
10000383
100
AcDbDictionary
280
     1
  3
BTDETID
360
10000385
  0
DICTIONARY
  5
10000387
330
10000386
100
AcDbDictionary
280
     1
  3
BTDETID
360
10000388
  0
DICTIONARY
  5
1000038A
330
10000389
100
AcDbDictionary
280
     1
  3
BTDETID
360
1000038B
  0
DICTIONARY
  5
1000038D
330
1000038C
100
AcDbDictionary
280
     1
  3
BTDETID
360
1000038E
  0
DICTIONARY
  5
10000390
330
1000038F
100
AcDbDictionary
280
     1
  3
BTDETID
360
10000391
  0
DICTIONARY
  5
10000393
330
10000392
100
AcDbDictionary
280
     1
  3
BTDETID
360
10000394
  0
DICTIONARY
  5
10000396
330
10000395
100
AcDbDictionary
280
     1
  3
BTDETID
360
10000397
  0
DICTIONARY
  5
10000399
330
10000398
100
AcDbDictionary
280
     1
  3
BTDETID
360
1000039A
  0
DICTIONARY
  5
1000039C
330
1000039B
100
AcDbDictionary
280
     1
  3
BTDETID
360
1000039D
  0
DICTIONARY
  5
1000039F
330
1000039E
100
AcDbDictionary
280
     1
  3
BTDETID
360
100003A0
  0
DICTIONARY
  5
100003A2
330
100003A1
100
AcDbDictionary
280
     1
  3
BTDETID
360
100003A3
  0
DICTIONARY
  5
100003A5
330
100003A4
100
AcDbDictionary
280
     1
  3
BTDETID
360
100003A6
  0
DICTIONARY
  5
100003A8
330
100003A7
100
AcDbDictionary
280
     1
  3
BTDETID
360
100003A9
  0
DICTIONARY
  5
100003AB
330
100003AA
100
AcDbDictionary
280
     1
  3
BTDETID
360
100003AC
  0
DICTIONARY
  5
100003AE
330
100003AD
100
AcDbDictionary
280
     1
  3
BTDETID
360
100003AF
  0
DICTIONARY
  5
100003B1
330
100003B0
100
AcDbDictionary
280
     1
  3
BTDETID
360
100003B2
  0
DICTIONARY
  5
100003B4
330
100003B3
100
AcDbDictionary
280
     1
  3
BTDETID
360
100003B5
  0
DICTIONARY
  5
100003B7
330
100003B6
100
AcDbDictionary
280
     1
  3
BTDETID
360
100003B8
  0
DICTIONARY
  5
100003BA
330
100003B9
100
AcDbDictionary
280
     1
  3
BTDETID
360
100003BB
  0
DICTIONARY
  5
100003BD
330
100003BC
100
AcDbDictionary
280
     1
  3
BTDETID
360
100003BE
  0
DICTIONARY
  5
100003C0
330
100003BF
100
AcDbDictionary
280
     1
  3
BTDETID
360
100003C1
  0
DICTIONARY
  5
100003C3
330
100003C2
100
AcDbDictionary
280
     1
  3
BTDETID
360
100003C4
  0
DICTIONARY
  5
100003C6
330
100003C5
100
AcDbDictionary
280
     1
  3
BTDETID
360
100003C7
  0
DICTIONARY
  5
100003C9
330
100003C8
100
AcDbDictionary
280
     1
  3
BTDETID
360
100003CA
  0
DICTIONARY
  5
100003CC
330
100003CB
100
AcDbDictionary
280
     1
  3
BTDETID
360
100003CD
  0
DICTIONARY
  5
100003CF
330
100003CE
100
AcDbDictionary
280
     1
  3
BTDETID
360
100003D0
  0
DICTIONARY
  5
100003D2
330
100003D1
100
AcDbDictionary
280
     1
  3
BTDETID
360
100003D3
  0
DICTIONARY
  5
100003D5
330
100003D4
100
AcDbDictionary
280
     1
  3
BTDETID
360
100003D6
  0
DICTIONARY
  5
100003D8
330
100003D7
100
AcDbDictionary
280
     1
  3
BTDETID
360
100003D9
  0
DICTIONARY
  5
100003DB
330
100003DA
100
AcDbDictionary
280
     1
  3
BTDETID
360
100003DC
  0
DICTIONARY
  5
100003DE
330
100003DD
100
AcDbDictionary
280
     1
  3
BTDETID
360
100003DF
  0
DICTIONARY
  5
100003E1
330
100003E0
100
AcDbDictionary
280
     1
  3
BTDETID
360
100003E2
  0
DICTIONARY
  5
100003E4
330
100003E3
100
AcDbDictionary
280
     1
  3
BTDETID
360
100003E5
  0
DICTIONARY
  5
100003E7
330
100003E6
100
AcDbDictionary
280
     1
  3
BTDETID
360
100003E8
  0
DICTIONARY
  5
100003EA
330
100003E9
100
AcDbDictionary
280
     1
  3
BTDETID
360
100003EB
  0
DICTIONARY
  5
100003ED
330
100003EC
100
AcDbDictionary
280
     1
  3
BTDETID
360
100003EE
  0
DICTIONARY
  5
100003F0
330
100003EF
100
AcDbDictionary
280
     1
  3
BTDETID
360
100003F1
  0
DICTIONARY
  5
100003F3
330
100003F2
100
AcDbDictionary
280
     1
  3
BTDETID
360
100003F4
  0
DICTIONARY
  5
100003F6
330
100003F5
100
AcDbDictionary
280
     1
  3
BTDETID
360
100003F7
  0
DICTIONARY
  5
100003F9
330
100003F8
100
AcDbDictionary
280
     1
  3
BTDETID
360
100003FA
  0
DICTIONARY
  5
100003FC
330
100003FB
100
AcDbDictionary
280
     1
  3
BTDETID
360
100003FD
  0
DICTIONARY
  5
100003FF
330
100003FE
100
AcDbDictionary
280
     1
  3
BTDETID
360
10000400
  0
DICTIONARY
  5
10000402
330
10000401
100
AcDbDictionary
280
     1
  3
BTDETID
360
10000403
  0
DICTIONARY
  5
10000405
330
10000404
100
AcDbDictionary
280
     1
  3
BTDETID
360
10000406
  0
DICTIONARY
  5
10000408
330
10000407
100
AcDbDictionary
280
     1
  3
BTDETID
360
10000409
  0
DICTIONARY
  5
1000040B
330
1000040A
100
AcDbDictionary
280
     1
  3
BTDETID
360
1000040C
  0
DICTIONARY
  5
1000040E
330
1000040D
100
AcDbDictionary
280
     1
  3
BTDETID
360
1000040F
  0
DICTIONARY
  5
10000411
330
10000410
100
AcDbDictionary
280
     1
  3
BTDETID
360
10000412
  0
DICTIONARY
  5
10000414
330
10000413
100
AcDbDictionary
280
     1
  3
BTDETID
360
10000415
  0
DICTIONARY
  5
10000417
330
10000416
100
AcDbDictionary
280
     1
  3
BTDETID
360
10000418
  0
DICTIONARY
  5
1000041A
330
10000419
100
AcDbDictionary
280
     1
  3
BTDETID
360
1000041B
  0
DICTIONARY
  5
1000041D
330
1000041C
100
AcDbDictionary
280
     1
  3
BTDETID
360
1000041E
  0
DICTIONARY
  5
10000420
330
1000041F
100
AcDbDictionary
280
     1
  3
BTDETID
360
10000421
  0
DICTIONARY
  5
10000423
330
10000422
100
AcDbDictionary
280
     1
  3
BTDETID
360
10000424
  0
DICTIONARY
  5
10000426
330
10000425
100
AcDbDictionary
280
     1
  3
BTDETID
360
10000427
  0
DICTIONARY
  5
10000429
330
10000428
100
AcDbDictionary
280
     1
  3
BTDETID
360
1000042A
  0
DICTIONARY
  5
1000042C
330
1000042B
100
AcDbDictionary
280
     1
  3
BTDETID
360
1000042D
  0
DICTIONARY
  5
1000042F
330
1000042E
100
AcDbDictionary
280
     1
  3
BTDETID
360
10000430
  0
DICTIONARY
  5
10000432
330
10000431
100
AcDbDictionary
280
     1
  3
BTDETID
360
10000433
  0
DICTIONARY
  5
10000435
330
10000434
100
AcDbDictionary
280
     1
  3
BTDETID
360
10000436
  0
DICTIONARY
  5
10000438
330
10000437
100
AcDbDictionary
280
     1
  3
BTDETID
360
10000439
  0
DICTIONARY
  5
1000043B
330
1000043A
100
AcDbDictionary
280
     1
  3
BTDETID
360
1000043C
  0
DICTIONARY
  5
1000043E
330
1000043D
100
AcDbDictionary
280
     1
  3
BTDETID
360
1000043F
  0
DICTIONARY
  5
10000441
330
10000440
100
AcDbDictionary
280
     1
  3
BTDETID
360
10000442
  0
DICTIONARY
  5
10000444
330
10000443
100
AcDbDictionary
280
     1
  3
BTDETID
360
10000445
  0
DICTIONARY
  5
10000447
330
10000446
100
AcDbDictionary
280
     1
  3
BTDETID
360
10000448
  0
DICTIONARY
  5
1000044A
330
10000449
100
AcDbDictionary
280
     1
  3
BTDETID
360
1000044B
  0
DICTIONARY
  5
1000044D
330
1000044C
100
AcDbDictionary
280
     1
  3
BTDETID
360
1000044E
  0
DICTIONARY
  5
10000450
330
1000044F
100
AcDbDictionary
280
     1
  3
BTDETID
360
10000451
  0
DICTIONARY
  5
10000453
330
10000452
100
AcDbDictionary
280
     1
  3
BTDETID
360
10000454
  0
DICTIONARY
  5
10000456
330
10000455
100
AcDbDictionary
280
     1
  3
BTDETID
360
10000457
  0
DICTIONARY
  5
10000459
330
10000458
100
AcDbDictionary
280
     1
  3
BTDETID
360
1000045A
  0
DICTIONARY
  5
1000045C
330
1000045B
100
AcDbDictionary
280
     1
  3
BTDETID
360
1000045D
  0
DICTIONARY
  5
1000045F
330
1000045E
100
AcDbDictionary
280
     1
  3
BTDETID
360
10000460
  0
DICTIONARY
  5
10000462
330
10000461
100
AcDbDictionary
280
     1
  3
BTDETID
360
10000463
  0
DICTIONARY
  5
10000465
330
10000464
100
AcDbDictionary
280
     1
  3
BTDETID
360
10000466
  0
DICTIONARY
  5
10000468
330
10000467
100
AcDbDictionary
280
     1
  3
BTDETID
360
10000469
  0
DICTIONARY
  5
1000046B
330
1000046A
100
AcDbDictionary
280
     1
  3
BTDETID
360
1000046C
  0
DICTIONARY
  5
1000046E
330
1000046D
100
AcDbDictionary
280
     1
  3
BTDETID
360
1000046F
  0
DICTIONARY
  5
10000471
330
10000470
100
AcDbDictionary
280
     1
  3
BTDETID
360
10000472
  0
DICTIONARY
  5
10000474
330
10000473
100
AcDbDictionary
280
     1
  3
BTDETID
360
10000475
  0
DICTIONARY
  5
10000477
330
10000476
100
AcDbDictionary
280
     1
  3
BTDETID
360
10000478
  0
DICTIONARY
  5
1000047A
330
10000479
100
AcDbDictionary
280
     1
  3
BTDETID
360
1000047B
  0
DICTIONARY
  5
1000047D
330
1000047C
100
AcDbDictionary
280
     1
  3
BTDETID
360
1000047E
  0
DICTIONARY
  5
10000480
330
1000047F
100
AcDbDictionary
280
     1
  3
BTDETID
360
10000481
  0
DICTIONARY
  5
10000483
330
10000482
100
AcDbDictionary
280
     1
  3
BTDETID
360
10000484
  0
DICTIONARY
  5
10000486
330
10000485
100
AcDbDictionary
280
     1
  3
BTDETID
360
10000487
  0
DICTIONARY
  5
10000489
330
10000488
100
AcDbDictionary
280
     1
  3
BTDETID
360
1000048A
  0
DICTIONARY
  5
1000048C
330
1000048B
100
AcDbDictionary
280
     1
  3
BTDETID
360
1000048D
  0
DICTIONARY
  5
1000048F
330
1000048E
100
AcDbDictionary
280
     1
  3
BTDETID
360
10000490
  0
DICTIONARY
  5
10000492
330
10000491
100
AcDbDictionary
280
     1
  3
BTDETID
360
10000493
  0
DICTIONARY
  5
10000495
330
10000494
100
AcDbDictionary
280
     1
  3
BTDETID
360
10000496
  0
DICTIONARY
  5
10000498
330
10000497
100
AcDbDictionary
280
     1
  3
BTDETID
360
10000499
  0
DICTIONARY
  5
1000049B
330
1000049A
100
AcDbDictionary
280
     1
  3
BTDETID
360
1000049C
  0
DICTIONARY
  5
1000049E
330
1000049D
100
AcDbDictionary
280
     1
  3
BTDETID
360
1000049F
  0
DICTIONARY
  5
100004A1
330
100004A0
100
AcDbDictionary
280
     1
  3
BTDETID
360
100004A2
  0
DICTIONARY
  5
100004A4
330
100004A3
100
AcDbDictionary
280
     1
  3
BTDETID
360
100004A5
  0
DICTIONARY
  5
100004A7
330
100004A6
100
AcDbDictionary
280
     1
  3
BTDETID
360
100004A8
  0
DICTIONARY
  5
100004AA
330
100004A9
100
AcDbDictionary
280
     1
  3
BTDETID
360
100004AB
  0
DICTIONARY
  5
100004AD
330
100004AC
100
AcDbDictionary
280
     1
  3
BTDETID
360
100004AE
  0
DICTIONARY
  5
100004B0
330
100004AF
100
AcDbDictionary
280
     1
  3
BTDETID
360
100004B1
  0
DICTIONARY
  5
100004B3
330
100004B2
100
AcDbDictionary
280
     1
  3
BTDETID
360
100004B4
  0
DICTIONARY
  5
100004B6
330
100004B5
100
AcDbDictionary
280
     1
  3
BTDETID
360
100004B7
  0
DICTIONARY
  5
100004B9
330
100004B8
100
AcDbDictionary
280
     1
  3
BTDETID
360
100004BA
  0
DICTIONARY
  5
100004BC
330
100004BB
100
AcDbDictionary
280
     1
  3
BTDETID
360
100004BD
  0
DICTIONARY
  5
100004BF
330
100004BE
100
AcDbDictionary
280
     1
  3
BTDETID
360
100004C0
  0
DICTIONARY
  5
100004C2
330
100004C1
100
AcDbDictionary
280
     1
  3
BTDETID
360
100004C3
  0
DICTIONARY
  5
100004C5
330
100004C4
100
AcDbDictionary
280
     1
  3
BTDETID
360
100004C6
  0
DICTIONARY
  5
100004C8
330
100004C7
100
AcDbDictionary
280
     1
  3
BTDETID
360
100004C9
  0
DICTIONARY
  5
100004CB
330
100004CA
100
AcDbDictionary
280
     1
  3
BTDETID
360
100004CC
  0
DICTIONARY
  5
100004CE
330
100004CD
100
AcDbDictionary
280
     1
  3
BTDETID
360
100004CF
  0
DICTIONARY
  5
100004D1
330
100004D0
100
AcDbDictionary
280
     1
  3
BTDETID
360
100004D2
  0
DICTIONARY
  5
100004D4
330
100004D3
100
AcDbDictionary
280
     1
  3
BTDETID
360
100004D5
  0
DICTIONARY
  5
100004D7
330
100004D6
100
AcDbDictionary
280
     1
  3
BTDETID
360
100004D8
  0
DICTIONARY
  5
100004DA
330
100004D9
100
AcDbDictionary
280
     1
  3
BTDETID
360
100004DB
  0
DICTIONARY
  5
100004DD
330
100004DC
100
AcDbDictionary
280
     1
  3
BTDETID
360
100004DE
  0
DICTIONARY
  5
100004E0
330
100004DF
100
AcDbDictionary
280
     1
  3
BTDETID
360
100004E1
  0
DICTIONARY
  5
100004E3
330
100004E2
100
AcDbDictionary
280
     1
  3
BTDETID
360
100004E4
  0
DICTIONARY
  5
100004E6
330
100004E5
100
AcDbDictionary
280
     1
  3
BTDETID
360
100004E7
  0
DICTIONARY
  5
100004E9
330
100004E8
100
AcDbDictionary
280
     1
  3
BTDETID
360
100004EA
  0
DICTIONARY
  5
100004EC
330
100004EB
100
AcDbDictionary
280
     1
  3
BTDETID
360
100004ED
  0
DICTIONARY
  5
100004EF
330
100004EE
100
AcDbDictionary
280
     1
  3
BTDETID
360
100004F0
  0
DICTIONARY
  5
100004F2
330
100004F1
100
AcDbDictionary
280
     1
  3
BTDETID
360
100004F3
  0
DICTIONARY
  5
100004F5
330
100004F4
100
AcDbDictionary
280
     1
  3
BTDETID
360
100004F6
  0
DICTIONARY
  5
100004F8
330
100004F7
100
AcDbDictionary
280
     1
  3
BTDETID
360
100004F9
  0
DICTIONARY
  5
100004FB
330
100004FA
100
AcDbDictionary
280
     1
  3
BTDETID
360
100004FC
  0
DICTIONARY
  5
100004FE
330
100004FD
100
AcDbDictionary
280
     1
  3
BTDETID
360
100004FF
  0
DICTIONARY
  5
10000501
330
10000500
100
AcDbDictionary
280
     1
  3
BTDETID
360
10000502
  0
DICTIONARY
  5
10000504
330
10000503
100
AcDbDictionary
280
     1
  3
BTDETID
360
10000505
  0
DICTIONARY
  5
10000507
330
10000506
100
AcDbDictionary
280
     1
  3
BTDETID
360
10000508
  0
DICTIONARY
  5
1000050A
330
10000509
100
AcDbDictionary
280
     1
  3
BTDETID
360
1000050B
  0
DICTIONARY
  5
1000050D
330
1000050C
100
AcDbDictionary
280
     1
  3
BTDETID
360
1000050E
  0
DICTIONARY
  5
10000510
330
1000050F
100
AcDbDictionary
280
     1
  3
BTDETID
360
10000511
  0
DICTIONARY
  5
10000513
330
10000512
100
AcDbDictionary
280
     1
  3
BTDETID
360
10000514
  0
DICTIONARY
  5
10000516
330
10000515
100
AcDbDictionary
280
     1
  3
BTDETID
360
10000517
  0
DICTIONARY
  5
10000519
330
10000518
100
AcDbDictionary
280
     1
  3
BTDETID
360
1000051A
  0
DICTIONARY
  5
1000051C
330
1000051B
100
AcDbDictionary
280
     1
  3
BTDETID
360
1000051D
  0
DICTIONARY
  5
1000051F
330
1000051E
100
AcDbDictionary
280
     1
  3
BTDETID
360
10000520
  0
DICTIONARY
  5
10000522
330
10000521
100
AcDbDictionary
280
     1
  3
BTDETID
360
10000523
  0
DICTIONARY
  5
10000525
330
10000524
100
AcDbDictionary
280
     1
  3
BTDETID
360
10000526
  0
DICTIONARY
  5
10000528
330
10000527
100
AcDbDictionary
280
     1
  3
BTDETID
360
10000529
  0
DICTIONARY
  5
1000052B
330
1000052A
100
AcDbDictionary
280
     1
  3
BTDETID
360
1000052C
  0
DICTIONARY
  5
1000052E
330
1000052D
100
AcDbDictionary
280
     1
  3
BTDETID
360
1000052F
  0
DICTIONARY
  5
D
102
{ACAD_REACTORS
330
C
102
}
330
C
100
AcDbDictionary
  0
DICTIONARY
  5
1A
102
{ACAD_REACTORS
330
C
102
}
330
C
100
AcDbDictionary
  0
DICTIONARY
  5
43
102
{ACAD_REACTORS
330
C
102
}
330
C
100
AcDbDictionary
  3
BYBLOCK
350
45
  3
BYLAYER
350
44
  3
GLOBAL
350
46
  0
DICTIONARY
  5
6B
102
{ACAD_REACTORS
330
C
102
}
330
C
100
AcDbDictionary
  3
STANDARD
350
6C
  0
DICTIONARY
  5
17
102
{ACAD_REACTORS
330
C
102
}
330
C
100
AcDbDictionary
  3
STANDARD
350
18
  0
DICTIONARY
  5
19
102
{ACAD_REACTORS
330
C
102
}
330
C
100
AcDbDictionary
  0
DICTIONARY
  5
47
102
{ACAD_REACTORS
330
C
102
}
330
C
100
AcDbDictionary
  3
SCALE100_1
350
10000023
  3
SCALE10_1
350
1000001D
  3
SCALE12_1
350
1000001E
  3
SCALE16_1
350
1000001F
  3
SCALE1_1
350
10000006
  3
SCALE1_10
350
1000000D
  3
SCALE1_100
350
10000016
  3
SCALE1_12
350
1000000E
  3
SCALE1_16
350
1000000F
  3
SCALE1_2
350
10000007
  3
SCALE1_20
350
10000010
  3
SCALE1_25
350
10000011
  3
SCALE1_3
350
10000008
  3
SCALE1_32
350
10000012
  3
SCALE1_4
350
10000009
  3
SCALE1_40
350
10000013
  3
SCALE1_5
350
1000000A
  3
SCALE1_50
350
10000014
  3
SCALE1_6
350
1000000B
  3
SCALE1_8
350
1000000C
  3
SCALE1_80
350
10000015
  3
SCALE20_1
350
10000020
  3
SCALE2_1
350
10000017
  3
SCALE32_1
350
10000021
  3
SCALE3_1
350
10000018
  3
SCALE4_1
350
10000019
  3
SCALE50_1
350
10000022
  3
SCALE5_1
350
1000001A
  3
SCALE6_1
350
1000001B
  3
SCALE8_1
350
1000001C
  0
DICTIONARY
  5
2A
102
{ACAD_REACTORS
330
C
102
}
330
C
100
AcDbDictionary
  3
2DWIREFRAME
350
2F
  3
BASIC
350
32
  3
BRIGHTEN
350
36
  3
COLORCHANGE
350
3A
  3
CONCEPTUAL
350
34
  3
DIM
350
35
  3
EDGECOLOROFF
350
3D
  3
FACEPATTERN
350
39
  3
FLAT
350
2B
  3
FLATWITHEDGES
350
2C
  3
GOURAUD
350
2D
  3
GOURAUDWITHEDGES
350
2E
  3
HIDDEN
350
31
  3
JITTEROFF
350
3B
  3
LINEPATTERN
350
38
  3
OVERHANGOFF
350
3C
  3
REALISTIC
350
33
  3
SHADED
350
42
  3
SHADED_WITH_EDGES
350
41
  3
SHADES_OF_GRAY
350
3E
  3
SKETCHY
350
3F
  3
THICKEN
350
37
  3
WIREFRAME
350
30
  3
X-RAY
350
40
  0
DICTIONARY
  5
10000532
102
{ACAD_REACTORS
330
C
102
}
330
C
100
AcDbDictionary
  3
CEPSNID
350
1000053C
  3
CEPSNTYPE
350
1000053B
  3
DIMSTYLEDATA
350
10000552
  3
FINGERPRINTGUID
350
1000053D
  3
HYPERLINKBASE
350
10000535
  3
INSUNITS
350
1000053A
  3
LAYOUTDICT
350
10000537
  3
LWETCUNION
350
10000539
  3
PLOTSETDICT
350
10000538
  3
PSVPSCALE
350
1000053F
  3
PUCSBASE
350
10000542
  3
PUCSORGBACK
350
10000548
  3
PUCSORGBOTTOM
350
10000544
  3
PUCSORGFRONT
350
10000547
  3
PUCSORGLEFT
350
10000545
  3
PUCSORGRIGHT
350
10000546
  3
PUCSORGTOP
350
10000543
  3
PUCSORTHOREF
350
10000540
  3
PUCSORTHOVIEW
350
10000541
  3
STYLESHEET
350
10000536
  3
TSTACKALIGN
350
10000533
  3
TSTACKSIZE
350
10000534
  3
UCSBASE
350
1000054B
  3
UCSORGBACK
350
10000551
  3
UCSORGBOTTOM
350
1000054D
  3
UCSORGFRONT
350
10000550
  3
UCSORGLEFT
350
1000054E
  3
UCSORGRIGHT
350
1000054F
  3
UCSORGTOP
350
1000054C
  3
UCSORTHOREF
350
10000549
  3
UCSORTHOVIEW
350
1000054A
  3
VERSIONGUID
350
1000053E
  0
DICTIONARY
  5
10000553
102
{ACAD_REACTORS
330
C
102
}
330
C
100
AcDbDictionary
  3
CANNOSCALE
350
1000055D
  3
CMLEADERSTYLE
350
10000555
  3
CTABLESTYLE
350
10000554
  3
DIMASSOC
350
10000558
  3
HIDETEXT
350
10000559
  3
MSLTSCALE
350
1000055E
  0
XRECORD
  5
1000055A
102
{ACAD_REACTORS
330
C
102
}
330
C
100
AcDbXrecord
  1
DWGPROPS COOKIE
  2

  3

  4

  6
File was created by BTDwgCreate
  7

  8

  9

300
=
301
=
302
=
303
=
304
=
305
=
306
=
307
=
308
=
309
=
 40
0.0
 41
2459444.353736261
 42
2459444.353736342
  1

 90
        0
  0
DICTIONARY
  5
10000001
102
{ACAD_REACTORS
330
C
102
}
330
C
100
AcDbDictionary
280
     1
  3
DIM_UNITS
360
10000003
  3
DWGGEN_VERSION
360
10000002
  3
FIRST_ANGLE
360
10000005
  0
XRECORD
  5
1000055C
102
{ACAD_REACTORS
330
1000055B
102
}
330
1000055B
100
AcDbXrecord
102
VTR_0.000_0.000_1.000_1.000_VISUALSTYLE
340
2F
102
VTR_0.000_0.000_1.000_1.000_GRIDDISPLAY
 70
     3
102
VTR_0.000_0.000_1.000_1.000_GRIDMAJOR
 70
     5
102
VTR_0.000_0.000_1.000_1.000_DEFAULTLIGHTING
280
     1
102
VTR_0.000_0.000_1.000_1.000_DEFAULTLIGHTINGTYPE
 70
     1
102
VTR_0.000_0.000_1.000_1.000_BRIGHTNESS
141
0.0
102
VTR_0.000_0.000_1.000_1.000_CONTRAST
142
0.0
  0
SORTENTSTABLE
  5
10000531
102
{ACAD_REACTORS
330
10000530
102
}
330
10000530
100
AcDbSortentsTable
330
1F
  0
XRECORD
  5
10000052
102
{ACAD_REACTORS
330
10000051
102
}
330
10000051
100
AcDbXrecord
1000
KSNS
  0
XRECORD
  5
10000055
102
{ACAD_REACTORS
330
10000054
102
}
330
10000054
100
AcDbXrecord
1000
KSJS
  0
XRECORD
  5
10000058
102
{ACAD_REACTORS
330
10000057
102
}
330
10000057
100
AcDbXrecord
1000
KSFS
  0
XRECORD
  5
1000005B
102
{ACAD_REACTORS
330
1000005A
102
}
330
1000005A
100
AcDbXrecord
1000
KSBS
  0
XRECORD
  5
1000005E
102
{ACAD_REACTORS
330
1000005D
102
}
330
1000005D
100
AcDbXrecord
1000
KS9R
  0
XRECORD
  5
10000061
102
{ACAD_REACTORS
330
10000060
102
}
330
10000060
100
AcDbXrecord
1000
KS5R
  0
XRECORD
  5
10000064
102
{ACAD_REACTORS
330
10000063
102
}
330
10000063
100
AcDbXrecord
1000
KS1R
  0
XRECORD
  5
10000067
102
{ACAD_REACTORS
330
10000066
102
}
330
10000066
100
AcDbXrecord
1000
KSxR
  0
XRECORD
  5
1000006A
102
{ACAD_REACTORS
330
10000069
102
}
330
10000069
100
AcDbXrecord
1000
KStR
  0
XRECORD
  5
1000006D
102
{ACAD_REACTORS
330
1000006C
102
}
330
1000006C
100
AcDbXrecord
1000
KSpR
  0
XRECORD
  5
10000070
102
{ACAD_REACTORS
330
1000006F
102
}
330
1000006F
100
AcDbXrecord
1000
KSlR
  0
XRECORD
  5
10000073
102
{ACAD_REACTORS
330
10000072
102
}
330
10000072
100
AcDbXrecord
1000
KShR
  0
XRECORD
  5
10000076
102
{ACAD_REACTORS
330
10000075
102
}
330
10000075
100
AcDbXrecord
1000
KSdR
  0
XRECORD
  5
10000079
102
{ACAD_REACTORS
330
10000078
102
}
330
10000078
100
AcDbXrecord
1000
KSZR
  0
XRECORD
  5
1000007C
102
{ACAD_REACTORS
330
1000007B
102
}
330
1000007B
100
AcDbXrecord
1000
KSVR
  0
XRECORD
  5
1000007F
102
{ACAD_REACTORS
330
1000007E
102
}
330
1000007E
100
AcDbXrecord
1000
KSRR
  0
XRECORD
  5
10000082
102
{ACAD_REACTORS
330
10000081
102
}
330
10000081
100
AcDbXrecord
1000
KSNR
  0
XRECORD
  5
10000085
102
{ACAD_REACTORS
330
10000084
102
}
330
10000084
100
AcDbXrecord
1000
KSJR
  0
XRECORD
  5
10000088
102
{ACAD_REACTORS
330
10000087
102
}
330
10000087
100
AcDbXrecord
1000
KS9Q
  0
XRECORD
  5
1000008B
102
{ACAD_REACTORS
330
1000008A
102
}
330
1000008A
100
AcDbXrecord
1000
KS5Q
  0
XRECORD
  5
1000008E
102
{ACAD_REACTORS
330
1000008D
102
}
330
1000008D
100
AcDbXrecord
1000
KS1Q
  0
XRECORD
  5
10000091
102
{ACAD_REACTORS
330
10000090
102
}
330
10000090
100
AcDbXrecord
1000
KSxQ
  0
XRECORD
  5
10000094
102
{ACAD_REACTORS
330
10000093
102
}
330
10000093
100
AcDbXrecord
1000
KStQ
  0
XRECORD
  5
10000097
102
{ACAD_REACTORS
330
10000096
102
}
330
10000096
100
AcDbXrecord
1000
KSpQ
  0
XRECORD
  5
1000009A
102
{ACAD_REACTORS
330
10000099
102
}
330
10000099
100
AcDbXrecord
1000
KSlQ
  0
XRECORD
  5
1000009D
102
{ACAD_REACTORS
330
1000009C
102
}
330
1000009C
100
AcDbXrecord
1000
KShQ
  0
XRECORD
  5
100000A0
102
{ACAD_REACTORS
330
1000009F
102
}
330
1000009F
100
AcDbXrecord
1000
KSdQ
  0
XRECORD
  5
100000A3
102
{ACAD_REACTORS
330
100000A2
102
}
330
100000A2
100
AcDbXrecord
1000
KSZQ
  0
XRECORD
  5
100000A6
102
{ACAD_REACTORS
330
100000A5
102
}
330
100000A5
100
AcDbXrecord
1000
KSVQ
  0
XRECORD
  5
100000A9
102
{ACAD_REACTORS
330
100000A8
102
}
330
100000A8
100
AcDbXrecord
1000
KSRQ
  0
XRECORD
  5
100000AC
102
{ACAD_REACTORS
330
100000AB
102
}
330
100000AB
100
AcDbXrecord
1000
KSNQ
  0
XRECORD
  5
100000AF
102
{ACAD_REACTORS
330
100000AE
102
}
330
100000AE
100
AcDbXrecord
1000
KSJQ
  0
XRECORD
  5
100000B2
102
{ACAD_REACTORS
330
100000B1
102
}
330
100000B1
100
AcDbXrecord
1000
KSFQ
  0
XRECORD
  5
100000B5
102
{ACAD_REACTORS
330
100000B4
102
}
330
100000B4
100
AcDbXrecord
1000
KSBQ
  0
XRECORD
  5
100000B8
102
{ACAD_REACTORS
330
100000B7
102
}
330
100000B7
100
AcDbXrecord
1000
KS9P
  0
XRECORD
  5
100000BB
102
{ACAD_REACTORS
330
100000BA
102
}
330
100000BA
100
AcDbXrecord
1000
KS5P
  0
XRECORD
  5
100000BE
102
{ACAD_REACTORS
330
100000BD
102
}
330
100000BD
100
AcDbXrecord
1000
KS1P
  0
XRECORD
  5
100000C1
102
{ACAD_REACTORS
330
100000C0
102
}
330
100000C0
100
AcDbXrecord
1000
KSxP
  0
XRECORD
  5
100000C4
102
{ACAD_REACTORS
330
100000C3
102
}
330
100000C3
100
AcDbXrecord
1000
KStP
  0
XRECORD
  5
100000C7
102
{ACAD_REACTORS
330
100000C6
102
}
330
100000C6
100
AcDbXrecord
1000
KSlP
  0
XRECORD
  5
100000CA
102
{ACAD_REACTORS
330
100000C9
102
}
330
100000C9
100
AcDbXrecord
1000
KShP
  0
XRECORD
  5
100000CD
102
{ACAD_REACTORS
330
100000CC
102
}
330
100000CC
100
AcDbXrecord
1000
KSdP
  0
XRECORD
  5
100000D0
102
{ACAD_REACTORS
330
100000CF
102
}
330
100000CF
100
AcDbXrecord
1000
KSZP
  0
XRECORD
  5
100000D3
102
{ACAD_REACTORS
330
100000D2
102
}
330
100000D2
100
AcDbXrecord
1000
KSVP
  0
XRECORD
  5
100000D6
102
{ACAD_REACTORS
330
100000D5
102
}
330
100000D5
100
AcDbXrecord
1000
KSRP
  0
XRECORD
  5
100000D9
102
{ACAD_REACTORS
330
100000D8
102
}
330
100000D8
100
AcDbXrecord
1000
KSNP
  0
XRECORD
  5
100000DC
102
{ACAD_REACTORS
330
100000DB
102
}
330
100000DB
100
AcDbXrecord
1000
KSJP
  0
XRECORD
  5
100000DF
102
{ACAD_REACTORS
330
100000DE
102
}
330
100000DE
100
AcDbXrecord
1000
KSFP
  0
XRECORD
  5
100000E2
102
{ACAD_REACTORS
330
100000E1
102
}
330
100000E1
100
AcDbXrecord
1000
KSBP
  0
XRECORD
  5
100000E5
102
{ACAD_REACTORS
330
100000E4
102
}
330
100000E4
100
AcDbXrecord
1000
KS9O
  0
XRECORD
  5
100000E8
102
{ACAD_REACTORS
330
100000E7
102
}
330
100000E7
100
AcDbXrecord
1000
KS5O
  0
XRECORD
  5
100000EB
102
{ACAD_REACTORS
330
100000EA
102
}
330
100000EA
100
AcDbXrecord
1000
KS1O
  0
XRECORD
  5
100000EE
102
{ACAD_REACTORS
330
100000ED
102
}
330
100000ED
100
AcDbXrecord
1000
KSxO
  0
XRECORD
  5
100000F1
102
{ACAD_REACTORS
330
100000F0
102
}
330
100000F0
100
AcDbXrecord
1000
KStO
  0
XRECORD
  5
100000F4
102
{ACAD_REACTORS
330
100000F3
102
}
330
100000F3
100
AcDbXrecord
1000
KSpO
  0
XRECORD
  5
100000F7
102
{ACAD_REACTORS
330
100000F6
102
}
330
100000F6
100
AcDbXrecord
1000
KSlO
  0
XRECORD
  5
100000FA
102
{ACAD_REACTORS
330
100000F9
102
}
330
100000F9
100
AcDbXrecord
1000
KShO
  0
XRECORD
  5
100000FD
102
{ACAD_REACTORS
330
100000FC
102
}
330
100000FC
100
AcDbXrecord
1000
KSdO
  0
XRECORD
  5
10000100
102
{ACAD_REACTORS
330
100000FF
102
}
330
100000FF
100
AcDbXrecord
1000
KSZO
  0
XRECORD
  5
10000103
102
{ACAD_REACTORS
330
10000102
102
}
330
10000102
100
AcDbXrecord
1000
KSVO
  0
XRECORD
  5
10000106
102
{ACAD_REACTORS
330
10000105
102
}
330
10000105
100
AcDbXrecord
1000
KSRO
  0
XRECORD
  5
10000109
102
{ACAD_REACTORS
330
10000108
102
}
330
10000108
100
AcDbXrecord
1000
KSNO
  0
XRECORD
  5
1000010C
102
{ACAD_REACTORS
330
1000010B
102
}
330
1000010B
100
AcDbXrecord
1000
KSJO
  0
XRECORD
  5
1000010F
102
{ACAD_REACTORS
330
1000010E
102
}
330
1000010E
100
AcDbXrecord
1000
KSFO
  0
XRECORD
  5
10000112
102
{ACAD_REACTORS
330
10000111
102
}
330
10000111
100
AcDbXrecord
1000
KSBO
  0
XRECORD
  5
10000115
102
{ACAD_REACTORS
330
10000114
102
}
330
10000114
100
AcDbXrecord
1000
KS9N
  0
XRECORD
  5
10000118
102
{ACAD_REACTORS
330
10000117
102
}
330
10000117
100
AcDbXrecord
1000
KS5N
  0
XRECORD
  5
1000011B
102
{ACAD_REACTORS
330
1000011A
102
}
330
1000011A
100
AcDbXrecord
1000
KS1N
  0
XRECORD
  5
1000011E
102
{ACAD_REACTORS
330
1000011D
102
}
330
1000011D
100
AcDbXrecord
1000
KSxN
  0
XRECORD
  5
10000121
102
{ACAD_REACTORS
330
10000120
102
}
330
10000120
100
AcDbXrecord
1000
KStN
  0
XRECORD
  5
10000124
102
{ACAD_REACTORS
330
10000123
102
}
330
10000123
100
AcDbXrecord
1000
KSpN
  0
XRECORD
  5
10000127
102
{ACAD_REACTORS
330
10000126
102
}
330
10000126
100
AcDbXrecord
1000
KSlN
  0
XRECORD
  5
1000012A
102
{ACAD_REACTORS
330
10000129
102
}
330
10000129
100
AcDbXrecord
1000
KShN
  0
XRECORD
  5
1000012D
102
{ACAD_REACTORS
330
1000012C
102
}
330
1000012C
100
AcDbXrecord
1000
KSdN
  0
XRECORD
  5
10000130
102
{ACAD_REACTORS
330
1000012F
102
}
330
1000012F
100
AcDbXrecord
1000
KSZN
  0
XRECORD
  5
10000133
102
{ACAD_REACTORS
330
10000132
102
}
330
10000132
100
AcDbXrecord
1000
KSVN
  0
XRECORD
  5
10000136
102
{ACAD_REACTORS
330
10000135
102
}
330
10000135
100
AcDbXrecord
1000
KSRN
  0
XRECORD
  5
10000139
102
{ACAD_REACTORS
330
10000138
102
}
330
10000138
100
AcDbXrecord
1000
KSVU
  0
XRECORD
  5
1000013C
102
{ACAD_REACTORS
330
1000013B
102
}
330
1000013B
100
AcDbXrecord
1000
KSRU
  0
XRECORD
  5
1000013F
102
{ACAD_REACTORS
330
1000013E
102
}
330
1000013E
100
AcDbXrecord
1000
KSNU
  0
XRECORD
  5
10000142
102
{ACAD_REACTORS
330
10000141
102
}
330
10000141
100
AcDbXrecord
1000
KSJU
  0
XRECORD
  5
10000145
102
{ACAD_REACTORS
330
10000144
102
}
330
10000144
100
AcDbXrecord
1000
KSFU
  0
XRECORD
  5
10000148
102
{ACAD_REACTORS
330
10000147
102
}
330
10000147
100
AcDbXrecord
1000
KSBU
  0
XRECORD
  5
1000014B
102
{ACAD_REACTORS
330
1000014A
102
}
330
1000014A
100
AcDbXrecord
1000
KS9T
  0
XRECORD
  5
1000014E
102
{ACAD_REACTORS
330
1000014D
102
}
330
1000014D
100
AcDbXrecord
1000
KS5T
  0
XRECORD
  5
10000151
102
{ACAD_REACTORS
330
10000150
102
}
330
10000150
100
AcDbXrecord
1000
KS1T
  0
XRECORD
  5
10000154
102
{ACAD_REACTORS
330
10000153
102
}
330
10000153
100
AcDbXrecord
1000
KSxT
  0
XRECORD
  5
10000157
102
{ACAD_REACTORS
330
10000156
102
}
330
10000156
100
AcDbXrecord
1000
KStT
  0
XRECORD
  5
1000015A
102
{ACAD_REACTORS
330
10000159
102
}
330
10000159
100
AcDbXrecord
1000
KSpT
  0
XRECORD
  5
1000015D
102
{ACAD_REACTORS
330
1000015C
102
}
330
1000015C
100
AcDbXrecord
1000
KSlT
  0
XRECORD
  5
10000160
102
{ACAD_REACTORS
330
1000015F
102
}
330
1000015F
100
AcDbXrecord
1000
KShT
  0
XRECORD
  5
10000163
102
{ACAD_REACTORS
330
10000162
102
}
330
10000162
100
AcDbXrecord
1000
KSdT
  0
XRECORD
  5
10000166
102
{ACAD_REACTORS
330
10000165
102
}
330
10000165
100
AcDbXrecord
1000
KSBR
  0
XRECORD
  5
10000169
102
{ACAD_REACTORS
330
10000168
102
}
330
10000168
100
AcDbXrecord
1000
KSZT
  0
XRECORD
  5
1000016C
102
{ACAD_REACTORS
330
1000016B
102
}
330
1000016B
100
AcDbXrecord
1000
KSVT
  0
XRECORD
  5
1000016F
102
{ACAD_REACTORS
330
1000016E
102
}
330
1000016E
100
AcDbXrecord
1000
KSRT
  0
XRECORD
  5
10000172
102
{ACAD_REACTORS
330
10000171
102
}
330
10000171
100
AcDbXrecord
1000
KSNT
  0
XRECORD
  5
10000175
102
{ACAD_REACTORS
330
10000174
102
}
330
10000174
100
AcDbXrecord
1000
KSJT
  0
XRECORD
  5
10000178
102
{ACAD_REACTORS
330
10000177
102
}
330
10000177
100
AcDbXrecord
1000
KSFT
  0
XRECORD
  5
1000017B
102
{ACAD_REACTORS
330
1000017A
102
}
330
1000017A
100
AcDbXrecord
1000
KSBT
  0
XRECORD
  5
1000017E
102
{ACAD_REACTORS
330
1000017D
102
}
330
1000017D
100
AcDbXrecord
1000
KS9S
  0
XRECORD
  5
10000181
102
{ACAD_REACTORS
330
10000180
102
}
330
10000180
100
AcDbXrecord
1000
KS5S
  0
XRECORD
  5
10000184
102
{ACAD_REACTORS
330
10000183
102
}
330
10000183
100
AcDbXrecord
1000
KS1S
  0
XRECORD
  5
10000187
102
{ACAD_REACTORS
330
10000186
102
}
330
10000186
100
AcDbXrecord
1000
KSxS
  0
XRECORD
  5
1000018A
102
{ACAD_REACTORS
330
10000189
102
}
330
10000189
100
AcDbXrecord
1000
KStS
  0
XRECORD
  5
1000018D
102
{ACAD_REACTORS
330
1000018C
102
}
330
1000018C
100
AcDbXrecord
1000
KSpS
  0
XRECORD
  5
10000190
102
{ACAD_REACTORS
330
1000018F
102
}
330
1000018F
100
AcDbXrecord
1000
KSlS
  0
XRECORD
  5
10000193
102
{ACAD_REACTORS
330
10000192
102
}
330
10000192
100
AcDbXrecord
1000
KShS
  0
XRECORD
  5
10000196
102
{ACAD_REACTORS
330
10000195
102
}
330
10000195
100
AcDbXrecord
1000
KSdS
  0
XRECORD
  5
10000199
102
{ACAD_REACTORS
330
10000198
102
}
330
10000198
100
AcDbXrecord
1000
KSZS
  0
XRECORD
  5
1000019C
102
{ACAD_REACTORS
330
1000019B
102
}
330
1000019B
100
AcDbXrecord
1000
KSVS
  0
XRECORD
  5
1000019F
102
{ACAD_REACTORS
330
1000019E
102
}
330
1000019E
100
AcDbXrecord
1000
KSRS
  0
XRECORD
  5
100001A2
102
{ACAD_REACTORS
330
100001A1
102
}
330
100001A1
100
AcDbXrecord
1000
KSZU
  0
XRECORD
  5
100001A5
102
{ACAD_REACTORS
330
100001A4
102
}
330
100001A4
100
AcDbXrecord
1000
KSdU
  0
XRECORD
  5
100001A8
102
{ACAD_REACTORS
330
100001A7
102
}
330
100001A7
100
AcDbXrecord
1000
KShU
  0
XRECORD
  5
100001AB
102
{ACAD_REACTORS
330
100001AA
102
}
330
100001AA
100
AcDbXrecord
1000
KSlU
  0
XRECORD
  5
100001AE
102
{ACAD_REACTORS
330
100001AD
102
}
330
100001AD
100
AcDbXrecord
1000
KSpU
  0
XRECORD
  5
100001B1
102
{ACAD_REACTORS
330
100001B0
102
}
330
100001B0
100
AcDbXrecord
1000
KStU
  0
XRECORD
  5
100001B4
102
{ACAD_REACTORS
330
100001B3
102
}
330
100001B3
100
AcDbXrecord
1000
KSxU
  0
XRECORD
  5
100001B7
102
{ACAD_REACTORS
330
100001B6
102
}
330
100001B6
100
AcDbXrecord
1000
KS1U
  0
XRECORD
  5
100001BA
102
{ACAD_REACTORS
330
100001B9
102
}
330
100001B9
100
AcDbXrecord
1000
KS5U
  0
XRECORD
  5
100001BD
102
{ACAD_REACTORS
330
100001BC
102
}
330
100001BC
100
AcDbXrecord
1000
KS9U
  0
XRECORD
  5
100001C0
102
{ACAD_REACTORS
330
100001BF
102
}
330
100001BF
100
AcDbXrecord
1000
KSBV
  0
XRECORD
  5
100001C3
102
{ACAD_REACTORS
330
100001C2
102
}
330
100001C2
100
AcDbXrecord
1000
KSFV
  0
XRECORD
  5
100001C6
102
{ACAD_REACTORS
330
100001C5
102
}
330
100001C5
100
AcDbXrecord
1000
KSZC
  0
XRECORD
  5
100001C9
102
{ACAD_REACTORS
330
100001C8
102
}
330
100001C8
100
AcDbXrecord
1000
KS9X
  0
XRECORD
  5
100001CC
102
{ACAD_REACTORS
330
100001CB
102
}
330
100001CB
100
AcDbXrecord
1000
KSxX
  0
XRECORD
  5
100001CF
102
{ACAD_REACTORS
330
100001CE
102
}
330
100001CE
100
AcDbXrecord
1000
KSNC
  0
XRECORD
  5
100001D2
102
{ACAD_REACTORS
330
100001D1
102
}
330
100001D1
100
AcDbXrecord
1000
KSdC
  0
XRECORD
  5
100001D5
102
{ACAD_REACTORS
330
100001D4
102
}
330
100001D4
100
AcDbXrecord
1000
KSBY
  0
XRECORD
  5
100001D8
102
{ACAD_REACTORS
330
100001D7
102
}
330
100001D7
100
AcDbXrecord
1000
KS1X
  0
XRECORD
  5
100001DB
102
{ACAD_REACTORS
330
100001DA
102
}
330
100001DA
100
AcDbXrecord
1000
KSRC
  0
XRECORD
  5
100001DE
102
{ACAD_REACTORS
330
100001DD
102
}
330
100001DD
100
AcDbXrecord
1000
KShC
  0
XRECORD
  5
100001E1
102
{ACAD_REACTORS
330
100001E0
102
}
330
100001E0
100
AcDbXrecord
1000
KSFY
  0
XRECORD
  5
100001E4
102
{ACAD_REACTORS
330
100001E3
102
}
330
100001E3
100
AcDbXrecord
1000
KS5X
  0
XRECORD
  5
100001E7
102
{ACAD_REACTORS
330
100001E6
102
}
330
100001E6
100
AcDbXrecord
1000
KSVC
  0
XRECORD
  5
100001EA
102
{ACAD_REACTORS
330
100001E9
102
}
330
100001E9
100
AcDbXrecord
1000
KSlC
  0
XRECORD
  5
100001ED
102
{ACAD_REACTORS
330
100001EC
102
}
330
100001EC
100
AcDbXrecord
1000
KSJY
  0
XRECORD
  5
100001F0
102
{ACAD_REACTORS
330
100001EF
102
}
330
100001EF
100
AcDbXrecord
1000
KSNY
  0
XRECORD
  5
100001F3
102
{ACAD_REACTORS
330
100001F2
102
}
330
100001F2
100
AcDbXrecord
1000
KSpC
  0
XRECORD
  5
100001F6
102
{ACAD_REACTORS
330
100001F5
102
}
330
100001F5
100
AcDbXrecord
1000
KSRY
  0
XRECORD
  5
100001F9
102
{ACAD_REACTORS
330
100001F8
102
}
330
100001F8
100
AcDbXrecord
1000
KStC
  0
XRECORD
  5
100001FC
102
{ACAD_REACTORS
330
100001FB
102
}
330
100001FB
100
AcDbXrecord
1000
KSVY
  0
XRECORD
  5
100001FF
102
{ACAD_REACTORS
330
100001FE
102
}
330
100001FE
100
AcDbXrecord
1000
KSxC
  0
XRECORD
  5
10000202
102
{ACAD_REACTORS
330
10000201
102
}
330
10000201
100
AcDbXrecord
1000
KSZY
  0
XRECORD
  5
10000205
102
{ACAD_REACTORS
330
10000204
102
}
330
10000204
100
AcDbXrecord
1000
KS1C
  0
XRECORD
  5
10000208
102
{ACAD_REACTORS
330
10000207
102
}
330
10000207
100
AcDbXrecord
1000
KSdY
  0
XRECORD
  5
1000020B
102
{ACAD_REACTORS
330
1000020A
102
}
330
1000020A
100
AcDbXrecord
1000
KS5C
  0
XRECORD
  5
1000020E
102
{ACAD_REACTORS
330
1000020D
102
}
330
1000020D
100
AcDbXrecord
1000
KShY
  0
XRECORD
  5
10000211
102
{ACAD_REACTORS
330
10000210
102
}
330
10000210
100
AcDbXrecord
1000
KS9C
  0
XRECORD
  5
10000214
102
{ACAD_REACTORS
330
10000213
102
}
330
10000213
100
AcDbXrecord
1000
KSlY
  0
XRECORD
  5
10000217
102
{ACAD_REACTORS
330
10000216
102
}
330
10000216
100
AcDbXrecord
1000
KSBD
  0
XRECORD
  5
1000021A
102
{ACAD_REACTORS
330
10000219
102
}
330
10000219
100
AcDbXrecord
1000
KSpY
  0
XRECORD
  5
1000021D
102
{ACAD_REACTORS
330
1000021C
102
}
330
1000021C
100
AcDbXrecord
1000
KSFD
  0
XRECORD
  5
10000220
102
{ACAD_REACTORS
330
1000021F
102
}
330
1000021F
100
AcDbXrecord
1000
KStY
  0
XRECORD
  5
10000223
102
{ACAD_REACTORS
330
10000222
102
}
330
10000222
100
AcDbXrecord
1000
KSJD
  0
XRECORD
  5
10000226
102
{ACAD_REACTORS
330
10000225
102
}
330
10000225
100
AcDbXrecord
1000
KSxY
  0
XRECORD
  5
10000229
102
{ACAD_REACTORS
330
10000228
102
}
330
10000228
100
AcDbXrecord
1000
KSND
  0
XRECORD
  5
1000022C
102
{ACAD_REACTORS
330
1000022B
102
}
330
1000022B
100
AcDbXrecord
1000
KS1Y
  0
XRECORD
  5
1000022F
102
{ACAD_REACTORS
330
1000022E
102
}
330
1000022E
100
AcDbXrecord
1000
KSRD
  0
XRECORD
  5
10000232
102
{ACAD_REACTORS
330
10000231
102
}
330
10000231
100
AcDbXrecord
1000
KS5Y
  0
XRECORD
  5
10000235
102
{ACAD_REACTORS
330
10000234
102
}
330
10000234
100
AcDbXrecord
1000
KSVD
  0
XRECORD
  5
10000238
102
{ACAD_REACTORS
330
10000237
102
}
330
10000237
100
AcDbXrecord
1000
KS9Y
  0
XRECORD
  5
1000023B
102
{ACAD_REACTORS
330
1000023A
102
}
330
1000023A
100
AcDbXrecord
1000
KSZD
  0
XRECORD
  5
1000023E
102
{ACAD_REACTORS
330
1000023D
102
}
330
1000023D
100
AcDbXrecord
1000
KSpZ
  0
XRECORD
  5
10000241
102
{ACAD_REACTORS
330
10000240
102
}
330
10000240
100
AcDbXrecord
1000
KSNE
  0
XRECORD
  5
10000244
102
{ACAD_REACTORS
330
10000243
102
}
330
10000243
100
AcDbXrecord
1000
KStZ
  0
XRECORD
  5
10000247
102
{ACAD_REACTORS
330
10000246
102
}
330
10000246
100
AcDbXrecord
1000
KSVE
  0
XRECORD
  5
1000024A
102
{ACAD_REACTORS
330
10000249
102
}
330
10000249
100
AcDbXrecord
1000
KSxZ
  0
XRECORD
  5
1000024D
102
{ACAD_REACTORS
330
1000024C
102
}
330
1000024C
100
AcDbXrecord
1000
KSdE
  0
XRECORD
  5
10000250
102
{ACAD_REACTORS
330
1000024F
102
}
330
1000024F
100
AcDbXrecord
1000
KS1Z
  0
XRECORD
  5
10000253
102
{ACAD_REACTORS
330
10000252
102
}
330
10000252
100
AcDbXrecord
1000
KShE
  0
XRECORD
  5
10000256
102
{ACAD_REACTORS
330
10000255
102
}
330
10000255
100
AcDbXrecord
1000
KS9Z
  0
XRECORD
  5
10000259
102
{ACAD_REACTORS
330
10000258
102
}
330
10000258
100
AcDbXrecord
1000
KSpE
  0
XRECORD
  5
1000025C
102
{ACAD_REACTORS
330
1000025B
102
}
330
1000025B
100
AcDbXrecord
1000
KS5Z
  0
XRECORD
  5
1000025F
102
{ACAD_REACTORS
330
1000025E
102
}
330
1000025E
100
AcDbXrecord
1000
KSlE
  0
XRECORD
  5
10000262
102
{ACAD_REACTORS
330
10000261
102
}
330
10000261
100
AcDbXrecord
1000
KSlZ
  0
XRECORD
  5
10000265
102
{ACAD_REACTORS
330
10000264
102
}
330
10000264
100
AcDbXrecord
1000
KSJE
  0
XRECORD
  5
10000268
102
{ACAD_REACTORS
330
10000267
102
}
330
10000267
100
AcDbXrecord
1000
KShZ
  0
XRECORD
  5
1000026B
102
{ACAD_REACTORS
330
1000026A
102
}
330
1000026A
100
AcDbXrecord
1000
KSBE
  0
XRECORD
  5
1000026E
102
{ACAD_REACTORS
330
1000026D
102
}
330
1000026D
100
AcDbXrecord
1000
KSdZ
  0
XRECORD
  5
10000271
102
{ACAD_REACTORS
330
10000270
102
}
330
10000270
100
AcDbXrecord
1000
KS9D
  0
XRECORD
  5
10000274
102
{ACAD_REACTORS
330
10000273
102
}
330
10000273
100
AcDbXrecord
1000
KSZZ
  0
XRECORD
  5
10000277
102
{ACAD_REACTORS
330
10000276
102
}
330
10000276
100
AcDbXrecord
1000
KS5D
  0
XRECORD
  5
1000027A
102
{ACAD_REACTORS
330
10000279
102
}
330
10000279
100
AcDbXrecord
1000
KSVZ
  0
XRECORD
  5
1000027D
102
{ACAD_REACTORS
330
1000027C
102
}
330
1000027C
100
AcDbXrecord
1000
KSxD
  0
XRECORD
  5
10000280
102
{ACAD_REACTORS
330
1000027F
102
}
330
1000027F
100
AcDbXrecord
1000
KSRZ
  0
XRECORD
  5
10000283
102
{ACAD_REACTORS
330
10000282
102
}
330
10000282
100
AcDbXrecord
1000
KStD
  0
XRECORD
  5
10000286
102
{ACAD_REACTORS
330
10000285
102
}
330
10000285
100
AcDbXrecord
1000
KSNZ
  0
XRECORD
  5
10000289
102
{ACAD_REACTORS
330
10000288
102
}
330
10000288
100
AcDbXrecord
1000
KSpD
  0
XRECORD
  5
1000028C
102
{ACAD_REACTORS
330
1000028B
102
}
330
1000028B
100
AcDbXrecord
1000
KSJZ
  0
XRECORD
  5
1000028F
102
{ACAD_REACTORS
330
1000028E
102
}
330
1000028E
100
AcDbXrecord
1000
KSlD
  0
XRECORD
  5
10000292
102
{ACAD_REACTORS
330
10000291
102
}
330
10000291
100
AcDbXrecord
1000
KSFZ
  0
XRECORD
  5
10000295
102
{ACAD_REACTORS
330
10000294
102
}
330
10000294
100
AcDbXrecord
1000
KShD
  0
XRECORD
  5
10000298
102
{ACAD_REACTORS
330
10000297
102
}
330
10000297
100
AcDbXrecord
1000
KSBZ
  0
XRECORD
  5
1000029B
102
{ACAD_REACTORS
330
1000029A
102
}
330
1000029A
100
AcDbXrecord
1000
KSdD
  0
XRECORD
  5
1000029E
102
{ACAD_REACTORS
330
1000029D
102
}
330
1000029D
100
AcDbXrecord
1000
KStX
  0
XRECORD
  5
100002A1
102
{ACAD_REACTORS
330
100002A0
102
}
330
100002A0
100
AcDbXrecord
1000
KSJC
  0
XRECORD
  5
100002A4
102
{ACAD_REACTORS
330
100002A3
102
}
330
100002A3
100
AcDbXrecord
1000
KSpX
  0
XRECORD
  5
100002A7
102
{ACAD_REACTORS
330
100002A6
102
}
330
100002A6
100
AcDbXrecord
1000
KSFC
  0
XRECORD
  5
100002AA
102
{ACAD_REACTORS
330
100002A9
102
}
330
100002A9
100
AcDbXrecord
1000
KSlX
  0
XRECORD
  5
100002AD
102
{ACAD_REACTORS
330
100002AC
102
}
330
100002AC
100
AcDbXrecord
1000
KSBC
  0
XRECORD
  5
100002B0
102
{ACAD_REACTORS
330
100002AF
102
}
330
100002AF
100
AcDbXrecord
1000
KShX
  0
XRECORD
  5
100002B3
102
{ACAD_REACTORS
330
100002B2
102
}
330
100002B2
100
AcDbXrecord
1000
KS9B
  0
XRECORD
  5
100002B6
102
{ACAD_REACTORS
330
100002B5
102
}
330
100002B5
100
AcDbXrecord
1000
KSdX
  0
XRECORD
  5
100002B9
102
{ACAD_REACTORS
330
100002B8
102
}
330
100002B8
100
AcDbXrecord
1000
KS5B
  0
XRECORD
  5
100002BC
102
{ACAD_REACTORS
330
100002BB
102
}
330
100002BB
100
AcDbXrecord
1000
KSZX
  0
XRECORD
  5
100002BF
102
{ACAD_REACTORS
330
100002BE
102
}
330
100002BE
100
AcDbXrecord
1000
KS1B
  0
XRECORD
  5
100002C2
102
{ACAD_REACTORS
330
100002C1
102
}
330
100002C1
100
AcDbXrecord
1000
KSVX
  0
XRECORD
  5
100002C5
102
{ACAD_REACTORS
330
100002C4
102
}
330
100002C4
100
AcDbXrecord
1000
KSxB
  0
XRECORD
  5
100002C8
102
{ACAD_REACTORS
330
100002C7
102
}
330
100002C7
100
AcDbXrecord
1000
KSRX
  0
XRECORD
  5
100002CB
102
{ACAD_REACTORS
330
100002CA
102
}
330
100002CA
100
AcDbXrecord
1000
KStB
  0
XRECORD
  5
100002CE
102
{ACAD_REACTORS
330
100002CD
102
}
330
100002CD
100
AcDbXrecord
1000
KSNX
  0
XRECORD
  5
100002D1
102
{ACAD_REACTORS
330
100002D0
102
}
330
100002D0
100
AcDbXrecord
1000
KSpB
  0
XRECORD
  5
100002D4
102
{ACAD_REACTORS
330
100002D3
102
}
330
100002D3
100
AcDbXrecord
1000
KSJX
  0
XRECORD
  5
100002D7
102
{ACAD_REACTORS
330
100002D6
102
}
330
100002D6
100
AcDbXrecord
1000
KSlB
  0
XRECORD
  5
100002DA
102
{ACAD_REACTORS
330
100002D9
102
}
330
100002D9
100
AcDbXrecord
1000
KSFX
  0
XRECORD
  5
100002DD
102
{ACAD_REACTORS
330
100002DC
102
}
330
100002DC
100
AcDbXrecord
1000
KShB
  0
XRECORD
  5
100002E0
102
{ACAD_REACTORS
330
100002DF
102
}
330
100002DF
100
AcDbXrecord
1000
KSBX
  0
XRECORD
  5
100002E3
102
{ACAD_REACTORS
330
100002E2
102
}
330
100002E2
100
AcDbXrecord
1000
KSdB
  0
XRECORD
  5
100002E6
102
{ACAD_REACTORS
330
100002E5
102
}
330
100002E5
100
AcDbXrecord
1000
KS9W
  0
XRECORD
  5
100002E9
102
{ACAD_REACTORS
330
100002E8
102
}
330
100002E8
100
AcDbXrecord
1000
KSZB
  0
XRECORD
  5
100002EC
102
{ACAD_REACTORS
330
100002EB
102
}
330
100002EB
100
AcDbXrecord
1000
KS5W
  0
XRECORD
  5
100002EF
102
{ACAD_REACTORS
330
100002EE
102
}
330
100002EE
100
AcDbXrecord
1000
KSVB
  0
XRECORD
  5
100002F2
102
{ACAD_REACTORS
330
100002F1
102
}
330
100002F1
100
AcDbXrecord
1000
KSZE
  0
XRECORD
  5
100002F5
102
{ACAD_REACTORS
330
100002F4
102
}
330
100002F4
100
AcDbXrecord
1000
KS1W
  0
XRECORD
  5
100002F8
102
{ACAD_REACTORS
330
100002F7
102
}
330
100002F7
100
AcDbXrecord
1000
KSRB
  0
XRECORD
  5
100002FB
102
{ACAD_REACTORS
330
100002FA
102
}
330
100002FA
100
AcDbXrecord
1000
KSxW
  0
XRECORD
  5
100002FE
102
{ACAD_REACTORS
330
100002FD
102
}
330
100002FD
100
AcDbXrecord
1000
KSNB
  0
XRECORD
  5
10000301
102
{ACAD_REACTORS
330
10000300
102
}
330
10000300
100
AcDbXrecord
1000
KStW
  0
XRECORD
  5
10000304
102
{ACAD_REACTORS
330
10000303
102
}
330
10000303
100
AcDbXrecord
1000
KSJB
  0
XRECORD
  5
10000307
102
{ACAD_REACTORS
330
10000306
102
}
330
10000306
100
AcDbXrecord
1000
KSpW
  0
XRECORD
  5
1000030A
102
{ACAD_REACTORS
330
10000309
102
}
330
10000309
100
AcDbXrecord
1000
KSFB
  0
XRECORD
  5
1000030D
102
{ACAD_REACTORS
330
1000030C
102
}
330
1000030C
100
AcDbXrecord
1000
KSlW
  0
XRECORD
  5
10000310
102
{ACAD_REACTORS
330
1000030F
102
}
330
1000030F
100
AcDbXrecord
1000
KSBB
  0
XRECORD
  5
10000313
102
{ACAD_REACTORS
330
10000312
102
}
330
10000312
100
AcDbXrecord
1000
KShW
  0
XRECORD
  5
10000316
102
{ACAD_REACTORS
330
10000315
102
}
330
10000315
100
AcDbXrecord
1000
JS9
  0
XRECORD
  5
10000319
102
{ACAD_REACTORS
330
10000318
102
}
330
10000318
100
AcDbXrecord
1000
KSdW
  0
XRECORD
  5
1000031C
102
{ACAD_REACTORS
330
1000031B
102
}
330
1000031B
100
AcDbXrecord
1000
JS5
  0
XRECORD
  5
1000031F
102
{ACAD_REACTORS
330
1000031E
102
}
330
1000031E
100
AcDbXrecord
1000
KSZW
  0
XRECORD
  5
10000322
102
{ACAD_REACTORS
330
10000321
102
}
330
10000321
100
AcDbXrecord
1000
JS1
  0
XRECORD
  5
10000325
102
{ACAD_REACTORS
330
10000324
102
}
330
10000324
100
AcDbXrecord
1000
KSVW
  0
XRECORD
  5
10000328
102
{ACAD_REACTORS
330
10000327
102
}
330
10000327
100
AcDbXrecord
1000
JSx
  0
XRECORD
  5
1000032B
102
{ACAD_REACTORS
330
1000032A
102
}
330
1000032A
100
AcDbXrecord
1000
KSRW
  0
XRECORD
  5
1000032E
102
{ACAD_REACTORS
330
1000032D
102
}
330
1000032D
100
AcDbXrecord
1000
JSt
  0
XRECORD
  5
10000331
102
{ACAD_REACTORS
330
10000330
102
}
330
10000330
100
AcDbXrecord
1000
KSNW
  0
XRECORD
  5
10000334
102
{ACAD_REACTORS
330
10000333
102
}
330
10000333
100
AcDbXrecord
1000
JSp
  0
XRECORD
  5
10000337
102
{ACAD_REACTORS
330
10000336
102
}
330
10000336
100
AcDbXrecord
1000
KSJW
  0
XRECORD
  5
1000033A
102
{ACAD_REACTORS
330
10000339
102
}
330
10000339
100
AcDbXrecord
1000
JSl
  0
XRECORD
  5
1000033D
102
{ACAD_REACTORS
330
1000033C
102
}
330
1000033C
100
AcDbXrecord
1000
KSFW
  0
XRECORD
  5
10000340
102
{ACAD_REACTORS
330
1000033F
102
}
330
1000033F
100
AcDbXrecord
1000
JSh
  0
XRECORD
  5
10000343
102
{ACAD_REACTORS
330
10000342
102
}
330
10000342
100
AcDbXrecord
1000
KSBW
  0
XRECORD
  5
10000346
102
{ACAD_REACTORS
330
10000345
102
}
330
10000345
100
AcDbXrecord
1000
JSd
  0
XRECORD
  5
10000349
102
{ACAD_REACTORS
330
10000348
102
}
330
10000348
100
AcDbXrecord
1000
KS9V
  0
XRECORD
  5
1000034C
102
{ACAD_REACTORS
330
1000034B
102
}
330
1000034B
100
AcDbXrecord
1000
JSZ
  0
XRECORD
  5
1000034F
102
{ACAD_REACTORS
330
1000034E
102
}
330
1000034E
100
AcDbXrecord
1000
KS5V
  0
XRECORD
  5
10000352
102
{ACAD_REACTORS
330
10000351
102
}
330
10000351
100
AcDbXrecord
1000
JSV
  0
XRECORD
  5
10000355
102
{ACAD_REACTORS
330
10000354
102
}
330
10000354
100
AcDbXrecord
1000
KS1V
  0
XRECORD
  5
10000358
102
{ACAD_REACTORS
330
10000357
102
}
330
10000357
100
AcDbXrecord
1000
JSR
  0
XRECORD
  5
1000035B
102
{ACAD_REACTORS
330
1000035A
102
}
330
1000035A
100
AcDbXrecord
1000
KSxV
  0
XRECORD
  5
1000035E
102
{ACAD_REACTORS
330
1000035D
102
}
330
1000035D
100
AcDbXrecord
1000
JSN
  0
XRECORD
  5
10000361
102
{ACAD_REACTORS
330
10000360
102
}
330
10000360
100
AcDbXrecord
1000
KStV
  0
XRECORD
  5
10000364
102
{ACAD_REACTORS
330
10000363
102
}
330
10000363
100
AcDbXrecord
1000
JSJ
  0
XRECORD
  5
10000367
102
{ACAD_REACTORS
330
10000366
102
}
330
10000366
100
AcDbXrecord
1000
KSpV
  0
XRECORD
  5
1000036A
102
{ACAD_REACTORS
330
10000369
102
}
330
10000369
100
AcDbXrecord
1000
JSF
  0
XRECORD
  5
1000036D
102
{ACAD_REACTORS
330
1000036C
102
}
330
1000036C
100
AcDbXrecord
1000
KSlV
  0
XRECORD
  5
10000370
102
{ACAD_REACTORS
330
1000036F
102
}
330
1000036F
100
AcDbXrecord
1000
JSB
  0
XRECORD
  5
10000373
102
{ACAD_REACTORS
330
10000372
102
}
330
10000372
100
AcDbXrecord
1000
KShV
  0
XRECORD
  5
10000376
102
{ACAD_REACTORS
330
10000375
102
}
330
10000375
100
AcDbXrecord
1000
KSdV
  0
XRECORD
  5
10000379
102
{ACAD_REACTORS
330
10000378
102
}
330
10000378
100
AcDbXrecord
1000
KSZV
  0
XRECORD
  5
1000037C
102
{ACAD_REACTORS
330
1000037B
102
}
330
1000037B
100
AcDbXrecord
1000
KSVV
  0
XRECORD
  5
1000037F
102
{ACAD_REACTORS
330
1000037E
102
}
330
1000037E
100
AcDbXrecord
1000
KSRV
  0
XRECORD
  5
10000382
102
{ACAD_REACTORS
330
10000381
102
}
330
10000381
100
AcDbXrecord
1000
KSNV
  0
XRECORD
  5
10000385
102
{ACAD_REACTORS
330
10000384
102
}
330
10000384
100
AcDbXrecord
1000
KSJV
  0
XRECORD
  5
10000388
102
{ACAD_REACTORS
330
10000387
102
}
330
10000387
100
AcDbXrecord
1000
KS1D
  0
XRECORD
  5
1000038B
102
{ACAD_REACTORS
330
1000038A
102
}
330
1000038A
100
AcDbXrecord
1000
KStE
  0
XRECORD
  5
1000038E
102
{ACAD_REACTORS
330
1000038D
102
}
330
1000038D
100
AcDbXrecord
1000
KSpP
  0
XRECORD
  5
10000391
102
{ACAD_REACTORS
330
10000390
102
}
330
10000390
100
AcDbXrecord
1000
KSFE
  0
XRECORD
  5
10000394
102
{ACAD_REACTORS
330
10000393
102
}
330
10000393
100
AcDbXrecord
1000
KSpJ
  0
XRECORD
  5
10000397
102
{ACAD_REACTORS
330
10000396
102
}
330
10000396
100
AcDbXrecord
1000
KSxE
  0
XRECORD
  5
1000039A
102
{ACAD_REACTORS
330
10000399
102
}
330
10000399
100
AcDbXrecord
1000
KS1E
  0
XRECORD
  5
1000039D
102
{ACAD_REACTORS
330
1000039C
102
}
330
1000039C
100
AcDbXrecord
1000
KS5E
  0
XRECORD
  5
100003A0
102
{ACAD_REACTORS
330
1000039F
102
}
330
1000039F
100
AcDbXrecord
1000
KS9E
  0
XRECORD
  5
100003A3
102
{ACAD_REACTORS
330
100003A2
102
}
330
100003A2
100
AcDbXrecord
1000
KSBF
  0
XRECORD
  5
100003A6
102
{ACAD_REACTORS
330
100003A5
102
}
330
100003A5
100
AcDbXrecord
1000
KSFF
  0
XRECORD
  5
100003A9
102
{ACAD_REACTORS
330
100003A8
102
}
330
100003A8
100
AcDbXrecord
1000
KSJF
  0
XRECORD
  5
100003AC
102
{ACAD_REACTORS
330
100003AB
102
}
330
100003AB
100
AcDbXrecord
1000
KSNF
  0
XRECORD
  5
100003AF
102
{ACAD_REACTORS
330
100003AE
102
}
330
100003AE
100
AcDbXrecord
1000
KSRF
  0
XRECORD
  5
100003B2
102
{ACAD_REACTORS
330
100003B1
102
}
330
100003B1
100
AcDbXrecord
1000
KSVF
  0
XRECORD
  5
100003B5
102
{ACAD_REACTORS
330
100003B4
102
}
330
100003B4
100
AcDbXrecord
1000
KSRE
  0
XRECORD
  5
100003B8
102
{ACAD_REACTORS
330
100003B7
102
}
330
100003B7
100
AcDbXrecord
1000
KSZF
  0
XRECORD
  5
100003BB
102
{ACAD_REACTORS
330
100003BA
102
}
330
100003BA
100
AcDbXrecord
1000
KSdF
  0
XRECORD
  5
100003BE
102
{ACAD_REACTORS
330
100003BD
102
}
330
100003BD
100
AcDbXrecord
1000
KShF
  0
XRECORD
  5
100003C1
102
{ACAD_REACTORS
330
100003C0
102
}
330
100003C0
100
AcDbXrecord
1000
KSlF
  0
XRECORD
  5
100003C4
102
{ACAD_REACTORS
330
100003C3
102
}
330
100003C3
100
AcDbXrecord
1000
KSpF
  0
XRECORD
  5
100003C7
102
{ACAD_REACTORS
330
100003C6
102
}
330
100003C6
100
AcDbXrecord
1000
KStF
  0
XRECORD
  5
100003CA
102
{ACAD_REACTORS
330
100003C9
102
}
330
100003C9
100
AcDbXrecord
1000
KSxF
  0
XRECORD
  5
100003CD
102
{ACAD_REACTORS
330
100003CC
102
}
330
100003CC
100
AcDbXrecord
1000
KS1F
  0
XRECORD
  5
100003D0
102
{ACAD_REACTORS
330
100003CF
102
}
330
100003CF
100
AcDbXrecord
1000
KS5F
  0
XRECORD
  5
100003D3
102
{ACAD_REACTORS
330
100003D2
102
}
330
100003D2
100
AcDbXrecord
1000
KS9F
  0
XRECORD
  5
100003D6
102
{ACAD_REACTORS
330
100003D5
102
}
330
100003D5
100
AcDbXrecord
1000
KSBG
  0
XRECORD
  5
100003D9
102
{ACAD_REACTORS
330
100003D8
102
}
330
100003D8
100
AcDbXrecord
1000
KSFG
  0
XRECORD
  5
100003DC
102
{ACAD_REACTORS
330
100003DB
102
}
330
100003DB
100
AcDbXrecord
1000
KSJG
  0
XRECORD
  5
100003DF
102
{ACAD_REACTORS
330
100003DE
102
}
330
100003DE
100
AcDbXrecord
1000
KSNG
  0
XRECORD
  5
100003E2
102
{ACAD_REACTORS
330
100003E1
102
}
330
100003E1
100
AcDbXrecord
1000
KSRG
  0
XRECORD
  5
100003E5
102
{ACAD_REACTORS
330
100003E4
102
}
330
100003E4
100
AcDbXrecord
1000
KSVG
  0
XRECORD
  5
100003E8
102
{ACAD_REACTORS
330
100003E7
102
}
330
100003E7
100
AcDbXrecord
1000
KSZG
  0
XRECORD
  5
100003EB
102
{ACAD_REACTORS
330
100003EA
102
}
330
100003EA
100
AcDbXrecord
1000
KSdG
  0
XRECORD
  5
100003EE
102
{ACAD_REACTORS
330
100003ED
102
}
330
100003ED
100
AcDbXrecord
1000
KShG
  0
XRECORD
  5
100003F1
102
{ACAD_REACTORS
330
100003F0
102
}
330
100003F0
100
AcDbXrecord
1000
KSlG
  0
XRECORD
  5
100003F4
102
{ACAD_REACTORS
330
100003F3
102
}
330
100003F3
100
AcDbXrecord
1000
KSpG
  0
XRECORD
  5
100003F7
102
{ACAD_REACTORS
330
100003F6
102
}
330
100003F6
100
AcDbXrecord
1000
KStG
  0
XRECORD
  5
100003FA
102
{ACAD_REACTORS
330
100003F9
102
}
330
100003F9
100
AcDbXrecord
1000
KSxG
  0
XRECORD
  5
100003FD
102
{ACAD_REACTORS
330
100003FC
102
}
330
100003FC
100
AcDbXrecord
1000
KS1G
  0
XRECORD
  5
10000400
102
{ACAD_REACTORS
330
100003FF
102
}
330
100003FF
100
AcDbXrecord
1000
KS5G
  0
XRECORD
  5
10000403
102
{ACAD_REACTORS
330
10000402
102
}
330
10000402
100
AcDbXrecord
1000
KS9G
  0
XRECORD
  5
10000406
102
{ACAD_REACTORS
330
10000405
102
}
330
10000405
100
AcDbXrecord
1000
KSBH
  0
XRECORD
  5
10000409
102
{ACAD_REACTORS
330
10000408
102
}
330
10000408
100
AcDbXrecord
1000
KSFH
  0
XRECORD
  5
1000040C
102
{ACAD_REACTORS
330
1000040B
102
}
330
1000040B
100
AcDbXrecord
1000
KSJH
  0
XRECORD
  5
1000040F
102
{ACAD_REACTORS
330
1000040E
102
}
330
1000040E
100
AcDbXrecord
1000
KSNH
  0
XRECORD
  5
10000412
102
{ACAD_REACTORS
330
10000411
102
}
330
10000411
100
AcDbXrecord
1000
KSRH
  0
XRECORD
  5
10000415
102
{ACAD_REACTORS
330
10000414
102
}
330
10000414
100
AcDbXrecord
1000
KSVH
  0
XRECORD
  5
10000418
102
{ACAD_REACTORS
330
10000417
102
}
330
10000417
100
AcDbXrecord
1000
KSZH
  0
XRECORD
  5
1000041B
102
{ACAD_REACTORS
330
1000041A
102
}
330
1000041A
100
AcDbXrecord
1000
KSdH
  0
XRECORD
  5
1000041E
102
{ACAD_REACTORS
330
1000041D
102
}
330
1000041D
100
AcDbXrecord
1000
KShH
  0
XRECORD
  5
10000421
102
{ACAD_REACTORS
330
10000420
102
}
330
10000420
100
AcDbXrecord
1000
KSlH
  0
XRECORD
  5
10000424
102
{ACAD_REACTORS
330
10000423
102
}
330
10000423
100
AcDbXrecord
1000
KSpH
  0
XRECORD
  5
10000427
102
{ACAD_REACTORS
330
10000426
102
}
330
10000426
100
AcDbXrecord
1000
KStH
  0
XRECORD
  5
1000042A
102
{ACAD_REACTORS
330
10000429
102
}
330
10000429
100
AcDbXrecord
1000
KSxH
  0
XRECORD
  5
1000042D
102
{ACAD_REACTORS
330
1000042C
102
}
330
1000042C
100
AcDbXrecord
1000
KS1H
  0
XRECORD
  5
10000430
102
{ACAD_REACTORS
330
1000042F
102
}
330
1000042F
100
AcDbXrecord
1000
KS5H
  0
XRECORD
  5
10000433
102
{ACAD_REACTORS
330
10000432
102
}
330
10000432
100
AcDbXrecord
1000
KS9H
  0
XRECORD
  5
10000436
102
{ACAD_REACTORS
330
10000435
102
}
330
10000435
100
AcDbXrecord
1000
KSBI
  0
XRECORD
  5
10000439
102
{ACAD_REACTORS
330
10000438
102
}
330
10000438
100
AcDbXrecord
1000
KSFI
  0
XRECORD
  5
1000043C
102
{ACAD_REACTORS
330
1000043B
102
}
330
1000043B
100
AcDbXrecord
1000
KSJI
  0
XRECORD
  5
1000043F
102
{ACAD_REACTORS
330
1000043E
102
}
330
1000043E
100
AcDbXrecord
1000
KSNI
  0
XRECORD
  5
10000442
102
{ACAD_REACTORS
330
10000441
102
}
330
10000441
100
AcDbXrecord
1000
KSRI
  0
XRECORD
  5
10000445
102
{ACAD_REACTORS
330
10000444
102
}
330
10000444
100
AcDbXrecord
1000
KSVI
  0
XRECORD
  5
10000448
102
{ACAD_REACTORS
330
10000447
102
}
330
10000447
100
AcDbXrecord
1000
KSZI
  0
XRECORD
  5
1000044B
102
{ACAD_REACTORS
330
1000044A
102
}
330
1000044A
100
AcDbXrecord
1000
KSdI
  0
XRECORD
  5
1000044E
102
{ACAD_REACTORS
330
1000044D
102
}
330
1000044D
100
AcDbXrecord
1000
KShI
  0
XRECORD
  5
10000451
102
{ACAD_REACTORS
330
10000450
102
}
330
10000450
100
AcDbXrecord
1000
KSlI
  0
XRECORD
  5
10000454
102
{ACAD_REACTORS
330
10000453
102
}
330
10000453
100
AcDbXrecord
1000
KSpI
  0
XRECORD
  5
10000457
102
{ACAD_REACTORS
330
10000456
102
}
330
10000456
100
AcDbXrecord
1000
KStI
  0
XRECORD
  5
1000045A
102
{ACAD_REACTORS
330
10000459
102
}
330
10000459
100
AcDbXrecord
1000
KSxI
  0
XRECORD
  5
1000045D
102
{ACAD_REACTORS
330
1000045C
102
}
330
1000045C
100
AcDbXrecord
1000
KS1I
  0
XRECORD
  5
10000460
102
{ACAD_REACTORS
330
1000045F
102
}
330
1000045F
100
AcDbXrecord
1000
KS5I
  0
XRECORD
  5
10000463
102
{ACAD_REACTORS
330
10000462
102
}
330
10000462
100
AcDbXrecord
1000
KSFR
  0
XRECORD
  5
10000466
102
{ACAD_REACTORS
330
10000465
102
}
330
10000465
100
AcDbXrecord
1000
KS9I
  0
XRECORD
  5
10000469
102
{ACAD_REACTORS
330
10000468
102
}
330
10000468
100
AcDbXrecord
1000
KSBJ
  0
XRECORD
  5
1000046C
102
{ACAD_REACTORS
330
1000046B
102
}
330
1000046B
100
AcDbXrecord
1000
KSFJ
  0
XRECORD
  5
1000046F
102
{ACAD_REACTORS
330
1000046E
102
}
330
1000046E
100
AcDbXrecord
1000
KSJJ
  0
XRECORD
  5
10000472
102
{ACAD_REACTORS
330
10000471
102
}
330
10000471
100
AcDbXrecord
1000
KSNJ
  0
XRECORD
  5
10000475
102
{ACAD_REACTORS
330
10000474
102
}
330
10000474
100
AcDbXrecord
1000
KSRJ
  0
XRECORD
  5
10000478
102
{ACAD_REACTORS
330
10000477
102
}
330
10000477
100
AcDbXrecord
1000
KSVJ
  0
XRECORD
  5
1000047B
102
{ACAD_REACTORS
330
1000047A
102
}
330
1000047A
100
AcDbXrecord
1000
KSZJ
  0
XRECORD
  5
1000047E
102
{ACAD_REACTORS
330
1000047D
102
}
330
1000047D
100
AcDbXrecord
1000
KSdJ
  0
XRECORD
  5
10000481
102
{ACAD_REACTORS
330
10000480
102
}
330
10000480
100
AcDbXrecord
1000
KShJ
  0
XRECORD
  5
10000484
102
{ACAD_REACTORS
330
10000483
102
}
330
10000483
100
AcDbXrecord
1000
KSlJ
  0
XRECORD
  5
10000487
102
{ACAD_REACTORS
330
10000486
102
}
330
10000486
100
AcDbXrecord
1000
KStJ
  0
XRECORD
  5
1000048A
102
{ACAD_REACTORS
330
10000489
102
}
330
10000489
100
AcDbXrecord
1000
KSxJ
  0
XRECORD
  5
1000048D
102
{ACAD_REACTORS
330
1000048C
102
}
330
1000048C
100
AcDbXrecord
1000
KS1J
  0
XRECORD
  5
10000490
102
{ACAD_REACTORS
330
1000048F
102
}
330
1000048F
100
AcDbXrecord
1000
KS5J
  0
XRECORD
  5
10000493
102
{ACAD_REACTORS
330
10000492
102
}
330
10000492
100
AcDbXrecord
1000
KS9J
  0
XRECORD
  5
10000496
102
{ACAD_REACTORS
330
10000495
102
}
330
10000495
100
AcDbXrecord
1000
KSBK
  0
XRECORD
  5
10000499
102
{ACAD_REACTORS
330
10000498
102
}
330
10000498
100
AcDbXrecord
1000
KSFK
  0
XRECORD
  5
1000049C
102
{ACAD_REACTORS
330
1000049B
102
}
330
1000049B
100
AcDbXrecord
1000
KSJK
  0
XRECORD
  5
1000049F
102
{ACAD_REACTORS
330
1000049E
102
}
330
1000049E
100
AcDbXrecord
1000
KSNK
  0
XRECORD
  5
100004A2
102
{ACAD_REACTORS
330
100004A1
102
}
330
100004A1
100
AcDbXrecord
1000
KSRK
  0
XRECORD
  5
100004A5
102
{ACAD_REACTORS
330
100004A4
102
}
330
100004A4
100
AcDbXrecord
1000
KSVK
  0
XRECORD
  5
100004A8
102
{ACAD_REACTORS
330
100004A7
102
}
330
100004A7
100
AcDbXrecord
1000
KSZK
  0
XRECORD
  5
100004AB
102
{ACAD_REACTORS
330
100004AA
102
}
330
100004AA
100
AcDbXrecord
1000
KSdK
  0
XRECORD
  5
100004AE
102
{ACAD_REACTORS
330
100004AD
102
}
330
100004AD
100
AcDbXrecord
1000
KShK
  0
XRECORD
  5
100004B1
102
{ACAD_REACTORS
330
100004B0
102
}
330
100004B0
100
AcDbXrecord
1000
KSlK
  0
XRECORD
  5
100004B4
102
{ACAD_REACTORS
330
100004B3
102
}
330
100004B3
100
AcDbXrecord
1000
KSpK
  0
XRECORD
  5
100004B7
102
{ACAD_REACTORS
330
100004B6
102
}
330
100004B6
100
AcDbXrecord
1000
KStK
  0
XRECORD
  5
100004BA
102
{ACAD_REACTORS
330
100004B9
102
}
330
100004B9
100
AcDbXrecord
1000
KSxK
  0
XRECORD
  5
100004BD
102
{ACAD_REACTORS
330
100004BC
102
}
330
100004BC
100
AcDbXrecord
1000
KS1K
  0
XRECORD
  5
100004C0
102
{ACAD_REACTORS
330
100004BF
102
}
330
100004BF
100
AcDbXrecord
1000
KS5K
  0
XRECORD
  5
100004C3
102
{ACAD_REACTORS
330
100004C2
102
}
330
100004C2
100
AcDbXrecord
1000
KS9K
  0
XRECORD
  5
100004C6
102
{ACAD_REACTORS
330
100004C5
102
}
330
100004C5
100
AcDbXrecord
1000
KSBL
  0
XRECORD
  5
100004C9
102
{ACAD_REACTORS
330
100004C8
102
}
330
100004C8
100
AcDbXrecord
1000
KSFL
  0
XRECORD
  5
100004CC
102
{ACAD_REACTORS
330
100004CB
102
}
330
100004CB
100
AcDbXrecord
1000
KSJL
  0
XRECORD
  5
100004CF
102
{ACAD_REACTORS
330
100004CE
102
}
330
100004CE
100
AcDbXrecord
1000
KSNL
  0
XRECORD
  5
100004D2
102
{ACAD_REACTORS
330
100004D1
102
}
330
100004D1
100
AcDbXrecord
1000
KSRL
  0
XRECORD
  5
100004D5
102
{ACAD_REACTORS
330
100004D4
102
}
330
100004D4
100
AcDbXrecord
1000
KSVL
  0
XRECORD
  5
100004D8
102
{ACAD_REACTORS
330
100004D7
102
}
330
100004D7
100
AcDbXrecord
1000
KSZL
  0
XRECORD
  5
100004DB
102
{ACAD_REACTORS
330
100004DA
102
}
330
100004DA
100
AcDbXrecord
1000
KSdL
  0
XRECORD
  5
100004DE
102
{ACAD_REACTORS
330
100004DD
102
}
330
100004DD
100
AcDbXrecord
1000
KShL
  0
XRECORD
  5
100004E1
102
{ACAD_REACTORS
330
100004E0
102
}
330
100004E0
100
AcDbXrecord
1000
KSlL
  0
XRECORD
  5
100004E4
102
{ACAD_REACTORS
330
100004E3
102
}
330
100004E3
100
AcDbXrecord
1000
KSpL
  0
XRECORD
  5
100004E7
102
{ACAD_REACTORS
330
100004E6
102
}
330
100004E6
100
AcDbXrecord
1000
KStL
  0
XRECORD
  5
100004EA
102
{ACAD_REACTORS
330
100004E9
102
}
330
100004E9
100
AcDbXrecord
1000
KSxL
  0
XRECORD
  5
100004ED
102
{ACAD_REACTORS
330
100004EC
102
}
330
100004EC
100
AcDbXrecord
1000
KS1L
  0
XRECORD
  5
100004F0
102
{ACAD_REACTORS
330
100004EF
102
}
330
100004EF
100
AcDbXrecord
1000
KS5L
  0
XRECORD
  5
100004F3
102
{ACAD_REACTORS
330
100004F2
102
}
330
100004F2
100
AcDbXrecord
1000
KS9L
  0
XRECORD
  5
100004F6
102
{ACAD_REACTORS
330
100004F5
102
}
330
100004F5
100
AcDbXrecord
1000
KSBM
  0
XRECORD
  5
100004F9
102
{ACAD_REACTORS
330
100004F8
102
}
330
100004F8
100
AcDbXrecord
1000
KSFM
  0
XRECORD
  5
100004FC
102
{ACAD_REACTORS
330
100004FB
102
}
330
100004FB
100
AcDbXrecord
1000
KSJM
  0
XRECORD
  5
100004FF
102
{ACAD_REACTORS
330
100004FE
102
}
330
100004FE
100
AcDbXrecord
1000
KSNM
  0
XRECORD
  5
10000502
102
{ACAD_REACTORS
330
10000501
102
}
330
10000501
100
AcDbXrecord
1000
KSRM
  0
XRECORD
  5
10000505
102
{ACAD_REACTORS
330
10000504
102
}
330
10000504
100
AcDbXrecord
1000
KSVM
  0
XRECORD
  5
10000508
102
{ACAD_REACTORS
330
10000507
102
}
330
10000507
100
AcDbXrecord
1000
KSZM
  0
XRECORD
  5
1000050B
102
{ACAD_REACTORS
330
1000050A
102
}
330
1000050A
100
AcDbXrecord
1000
KSdM
  0
XRECORD
  5
1000050E
102
{ACAD_REACTORS
330
1000050D
102
}
330
1000050D
100
AcDbXrecord
1000
KShM
  0
XRECORD
  5
10000511
102
{ACAD_REACTORS
330
10000510
102
}
330
10000510
100
AcDbXrecord
1000
KSlM
  0
XRECORD
  5
10000514
102
{ACAD_REACTORS
330
10000513
102
}
330
10000513
100
AcDbXrecord
1000
KSpM
  0
XRECORD
  5
10000517
102
{ACAD_REACTORS
330
10000516
102
}
330
10000516
100
AcDbXrecord
1000
KStM
  0
XRECORD
  5
1000051A
102
{ACAD_REACTORS
330
10000519
102
}
330
10000519
100
AcDbXrecord
1000
KSxM
  0
XRECORD
  5
1000051D
102
{ACAD_REACTORS
330
1000051C
102
}
330
1000051C
100
AcDbXrecord
1000
KS1M
  0
XRECORD
  5
10000520
102
{ACAD_REACTORS
330
1000051F
102
}
330
1000051F
100
AcDbXrecord
1000
KS5M
  0
XRECORD
  5
10000523
102
{ACAD_REACTORS
330
10000522
102
}
330
10000522
100
AcDbXrecord
1000
KS9M
  0
XRECORD
  5
10000526
102
{ACAD_REACTORS
330
10000525
102
}
330
10000525
100
AcDbXrecord
1000
KSBN
  0
XRECORD
  5
10000529
102
{ACAD_REACTORS
330
10000528
102
}
330
10000528
100
AcDbXrecord
1000
KSFN
  0
XRECORD
  5
1000052C
102
{ACAD_REACTORS
330
1000052B
102
}
330
1000052B
100
AcDbXrecord
1000
KSJN
  0
XRECORD
  5
1000052F
102
{ACAD_REACTORS
330
1000052E
102
}
330
1000052E
100
AcDbXrecord
1000
KSNN
  0
MATERIAL
  5
45
102
{ACAD_REACTORS
330
43
102
}
102
{ACAD_XDICTIONARY
360
10000561
102
}
330
43
100
AcDbMaterial
  1
BYBLOCK
  0
MATERIAL
  5
44
102
{ACAD_REACTORS
330
43
102
}
102
{ACAD_XDICTIONARY
360
1000055F
102
}
330
43
100
AcDbMaterial
  1
BYLAYER
  0
MATERIAL
  5
46
102
{ACAD_REACTORS
330
43
102
}
102
{ACAD_XDICTIONARY
360
10000563
102
}
330
43
100
AcDbMaterial
  1
GLOBAL
  0
ACAD_PROXY_OBJECT
  5
6C
102
{ACAD_REACTORS
330
6B
102
}
330
6B
100
AcDbProxyObject
 90
      499
 91
      505
 93
      610
310
40901902A4063FBFFFFFE056BD1B81E855B9FC0AD7A3703D0AD73F4214DD185B99185C9900AD7A3703D0AC73F90141901A02B5E8DC0F42B1CFC02B5E8DC0F42B1CFE5764000000000000300FC0
340
14
340
0
340
11
340
0
 94
        0
1001
ACAD_MLEADERVER
1070
     2
  0
MLINESTYLE
  5
18
102
{ACAD_REACTORS
330
17
102
}
330
17
100
AcDbMlineStyle
  2
Standard
 70
     0
  3

 62
   256
 51
90.0
 52
90.0
 71
     2
 49
0.5
 62
   256
  6
BYLAYER
 49
-0.5
 62
   256
  6
BYLAYER
  0
ACAD_PROXY_OBJECT
  5
10000023
102
{ACAD_REACTORS
330
47
102
}
330
47
100
AcDbProxyObject
 90
      499
 91
      503
 93
      121
310
9053130303A310000000000001650100
  0
ACAD_PROXY_OBJECT
  5
1000001D
102
{ACAD_REACTORS
330
47
102
}
330
47
100
AcDbProxyObject
 90
      499
 91
      503
 93
      113
310
90431303A310000000000000910100
  0
ACAD_PROXY_OBJECT
  5
1000001E
102
{ACAD_REACTORS
330
47
102
}
330
47
100
AcDbProxyObject
 90
      499
 91
      503
 93
      113
310
90431323A310000000000000A10100
  0
ACAD_PROXY_OBJECT
  5
1000001F
102
{ACAD_REACTORS
330
47
102
}
330
47
100
AcDbProxyObject
 90
      499
 91
      503
 93
      113
310
90431363A310000000000000C10100
  0
ACAD_PROXY_OBJECT
  5
10000006
102
{ACAD_REACTORS
330
47
102
}
330
47
100
AcDbProxyObject
 90
      499
 91
      503
 93
       41
310
903313A31500
  0
ACAD_PROXY_OBJECT
  5
1000000D
102
{ACAD_REACTORS
330
47
102
}
330
47
100
AcDbProxyObject
 90
      499
 91
      503
 93
      113
310
904313A31304000000000000244000
  0
ACAD_PROXY_OBJECT
  5
10000016
102
{ACAD_REACTORS
330
47
102
}
330
47
100
AcDbProxyObject
 90
      499
 91
      503
 93
      121
310
905313A3130304000000000000594000
  0
ACAD_PROXY_OBJECT
  5
1000000E
102
{ACAD_REACTORS
330
47
102
}
330
47
100
AcDbProxyObject
 90
      499
 91
      503
 93
      113
310
904313A31324000000000000284000
  0
ACAD_PROXY_OBJECT
  5
1000000F
102
{ACAD_REACTORS
330
47
102
}
330
47
100
AcDbProxyObject
 90
      499
 91
      503
 93
      113
310
904313A31364000000000000304000
  0
ACAD_PROXY_OBJECT
  5
10000007
102
{ACAD_REACTORS
330
47
102
}
330
47
100
AcDbProxyObject
 90
      499
 91
      503
 93
      105
310
903313A324000000000000004000
  0
ACAD_PROXY_OBJECT
  5
10000010
102
{ACAD_REACTORS
330
47
102
}
330
47
100
AcDbProxyObject
 90
      499
 91
      503
 93
      113
310
904313A32304000000000000344000
  0
ACAD_PROXY_OBJECT
  5
10000011
102
{ACAD_REACTORS
330
47
102
}
330
47
100
AcDbProxyObject
 90
      499
 91
      503
 93
      113
310
904313A32354000000000000394000
  0
ACAD_PROXY_OBJECT
  5
10000008
102
{ACAD_REACTORS
330
47
102
}
330
47
100
AcDbProxyObject
 90
      499
 91
      503
 93
      105
310
903313A334000000000000084000
  0
ACAD_PROXY_OBJECT
  5
10000012
102
{ACAD_REACTORS
330
47
102
}
330
47
100
AcDbProxyObject
 90
      499
 91
      503
 93
      113
310
904313A33324000000000000404000
  0
ACAD_PROXY_OBJECT
  5
10000009
102
{ACAD_REACTORS
330
47
102
}
330
47
100
AcDbProxyObject
 90
      499
 91
      503
 93
      105
310
903313A344000000000000104000
  0
ACAD_PROXY_OBJECT
  5
10000013
102
{ACAD_REACTORS
330
47
102
}
330
47
100
AcDbProxyObject
 90
      499
 91
      503
 93
      113
310
904313A34304000000000000444000
  0
ACAD_PROXY_OBJECT
  5
1000000A
102
{ACAD_REACTORS
330
47
102
}
330
47
100
AcDbProxyObject
 90
      499
 91
      503
 93
      105
310
903313A354000000000000144000
  0
ACAD_PROXY_OBJECT
  5
10000014
102
{ACAD_REACTORS
330
47
102
}
330
47
100
AcDbProxyObject
 90
      499
 91
      503
 93
      113
310
904313A35304000000000000494000
  0
ACAD_PROXY_OBJECT
  5
1000000B
102
{ACAD_REACTORS
330
47
102
}
330
47
100
AcDbProxyObject
 90
      499
 91
      503
 93
      105
310
903313A364000000000000184000
  0
ACAD_PROXY_OBJECT
  5
1000000C
102
{ACAD_REACTORS
330
47
102
}
330
47
100
AcDbProxyObject
 90
      499
 91
      503
 93
      105
310
903313A384000000000000204000
  0
ACAD_PROXY_OBJECT
  5
10000015
102
{ACAD_REACTORS
330
47
102
}
330
47
100
AcDbProxyObject
 90
      499
 91
      503
 93
      113
310
904313A38304000000000000544000
  0
ACAD_PROXY_OBJECT
  5
10000020
102
{ACAD_REACTORS
330
47
102
}
330
47
100
AcDbProxyObject
 90
      499
 91
      503
 93
      113
310
90432303A310000000000000D10100
  0
ACAD_PROXY_OBJECT
  5
10000017
102
{ACAD_REACTORS
330
47
102
}
330
47
100
AcDbProxyObject
 90
      499
 91
      503
 93
      105
310
903323A310000000000000010100
  0
ACAD_PROXY_OBJECT
  5
10000021
102
{ACAD_REACTORS
330
47
102
}
330
47
100
AcDbProxyObject
 90
      499
 91
      503
 93
      113
310
90433323A310000000000001010100
  0
ACAD_PROXY_OBJECT
  5
10000018
102
{ACAD_REACTORS
330
47
102
}
330
47
100
AcDbProxyObject
 90
      499
 91
      503
 93
      105
310
903333A310000000000000210100
  0
ACAD_PROXY_OBJECT
  5
10000019
102
{ACAD_REACTORS
330
47
102
}
330
47
100
AcDbProxyObject
 90
      499
 91
      503
 93
      105
310
903343A310000000000000410100
  0
ACAD_PROXY_OBJECT
  5
10000022
102
{ACAD_REACTORS
330
47
102
}
330
47
100
AcDbProxyObject
 90
      499
 91
      503
 93
      113
310
90435303A310000000000001250100
  0
ACAD_PROXY_OBJECT
  5
1000001A
102
{ACAD_REACTORS
330
47
102
}
330
47
100
AcDbProxyObject
 90
      499
 91
      503
 93
      105
310
903353A310000000000000510100
  0
ACAD_PROXY_OBJECT
  5
1000001B
102
{ACAD_REACTORS
330
47
102
}
330
47
100
AcDbProxyObject
 90
      499
 91
      503
 93
      105
310
903363A310000000000000610100
  0
ACAD_PROXY_OBJECT
  5
1000001C
102
{ACAD_REACTORS
330
47
102
}
330
47
100
AcDbProxyObject
 90
      499
 91
      503
 93
      105
310
903383A310000000000000810100
  0
ACAD_PROXY_OBJECT
  5
2F
102
{ACAD_REACTORS
330
2A
102
}
330
2A
100
AcDbProxyObject
 90
      499
 91
      501
 93
      436
310
42CC9915DA5C99599C985B595049028333333333333E33F0000000000000F90107901411070040501600405405064090741402480A0340
1001
ACAD
1000
AcDbSavedByObjectVersion
1070
     0
  0
ACAD_PROXY_OBJECT
  5
32
102
{ACAD_REACTORS
330
2A
102
}
330
2A
100
AcDbProxyObject
 90
      499
 91
      501
 93
      388
310
4150985CDA58D07406404333333333333E33F0000000000000F90107A41107004050150841D405064090741402480A0350
1001
ACAD
1000
AcDbSavedByObjectVersion
1070
     0
  0
ACAD_PROXY_OBJECT
  5
36
102
{ACAD_REACTORS
330
2A
102
}
330
2A
100
AcDbProxyObject
 90
      499
 91
      501
 93
      428
310
42109C9A59DA1D195B90C409028333333333333E33F0000000000000F9010790141107004050150841D405064090741402480A029950
1001
ACAD
1000
AcDbSavedByObjectVersion
1070
     0
  0
ACAD_PROXY_OBJECT
  5
3A
102
{ACAD_REACTORS
330
2A
102
}
330
2A
100
AcDbProxyObject
 90
      499
 91
      501
 93
      452
310
42D0DBDB1BDC90DA185B99D95104090240C333333333333E33F0000000000000F90108901411070040501508421405064090741402480A0350
1001
ACAD
1000
AcDbSavedByObjectVersion
1070
     0
  0
ACAD_PROXY_OBJECT
  5
34
102
{ACAD_REACTORS
330
2A
102
}
330
2A
100
AcDbProxyObject
 90
      499
 91
      501
 93
      500
310
4290DBDB98D95C1D1D585B10940D028333333333333E33F0000000000000F90107902409070040501000000000018199010841D405064090740C02480A0340
1001
ACAD
1000
AcDbSavedByObjectVersion
1070
     0
  0
ACAD_PROXY_OBJECT
  5
35
102
{ACAD_REACTORS
330
2A
102
}
330
2A
100
AcDbProxyObject
 90
      499
 91
      501
 93
      412
310
40D11A5B50B409028333333333333E33F0000000000000F9010790141107004050150841D405064090741402480A02677FFFFFD0
1001
ACAD
1000
AcDbSavedByObjectVersion
1070
     0
  0
ACAD_PROXY_OBJECT
  5
3D
102
{ACAD_REACTORS
330
2A
102
}
330
2A
100
AcDbProxyObject
 90
      499
 91
      501
 93
      452
310
43115919D950DBDB1BDC93D999916409028333333333333E33F0000000000000F9010790141107004050150841D405064090741402480A0350
1001
ACAD
1000
AcDbSavedByObjectVersion
1070
     0
  0
ACAD_PROXY_OBJECT
  5
39
102
{ACAD_REACTORS
330
2A
102
}
330
2A
100
AcDbProxyObject
 90
      499
 91
      501
 93
      444
310
42D19858D95C185D1D195C9B90F409028333333333333E33F0000000000000F9010790141107004050150841D405064090741402480A0350
1001
ACAD
1000
AcDbSavedByObjectVersion
1070
     0
  0
ACAD_PROXY_OBJECT
  5
2B
102
{ACAD_REACTORS
330
2A
102
}
330
2A
100
AcDbProxyObject
 90
      499
 91
      501
 93
      380
310
41119B185D240901404333333333333E33F0000000000000F9010740A907004050150841D405064090741402480A1B50
1001
ACAD
1000
AcDbSavedByObjectVersion
1070
     0
  0
ACAD_PROXY_OBJECT
  5
2C
102
{ACAD_REACTORS
330
2A
102
}
330
2A
100
AcDbProxyObject
 90
      499
 91
      501
 93
      468
310
43519B185D15DA5D1A115919D95CD0140901404333333333333E33F0000000000000F90107409019070040501600405405064090741402480A1B50
1001
ACAD
1000
AcDbSavedByObjectVersion
1070
     0
  0
ACAD_PROXY_OBJECT
  5
2D
102
{ACAD_REACTORS
330
2A
102
}
330
2A
100
AcDbProxyObject
 90
      499
 91
      501
 93
      404
310
41D1DBDD5C985D5910240902404333333333333E33F0000000000000F9010740A9070040501641D405064090741402480A1B50
1001
ACAD
1000
AcDbSavedByObjectVersion
1070
     0
  0
ACAD_PROXY_OBJECT
  5
2E
102
{ACAD_REACTORS
330
2A
102
}
330
2A
100
AcDbProxyObject
 90
      499
 91
      501
 93
      492
310
4411DBDD5C985D5915DA5D1A115919D95CD0340902404333333333333E33F0000000000000F90107409019070040501600405405064090741402480A1B50
1001
ACAD
1000
AcDbSavedByObjectVersion
1070
     0
  0
ACAD_PROXY_OBJECT
  5
31
102
{ACAD_REACTORS
330
2A
102
}
330
2A
100
AcDbProxyObject
 90
      499
 91
      501
 93
      476
310
41921A5919195B90640502408333333333333E33F0000000000000F901079024090700405020000000000001110200405405064090740C02480A0340
1001
ACAD
1000
AcDbSavedByObjectVersion
1070
     0
  0
ACAD_PROXY_OBJECT
  5
3B
102
{ACAD_REACTORS
330
2A
102
}
330
2A
100
AcDbProxyObject
 90
      499
 91
      501
 93
      428
310
42529A5D1D195C93D999914409028333333333333E33F0000000000000F9010790141107004050150A41D405064090741402480A0350
1001
ACAD
1000
AcDbSavedByObjectVersion
1070
     0
  0
ACAD_PROXY_OBJECT
  5
38
102
{ACAD_REACTORS
330
2A
102
}
330
2A
100
AcDbProxyObject
 90
      499
 91
      501
 93
      444
310
42D31A5B995C185D1D195C9B90E409028333333333333E33F0000000000000F9010790141107004050750841D405064090741402483A0350
1001
ACAD
1000
AcDbSavedByObjectVersion
1070
     0
  0
ACAD_PROXY_OBJECT
  5
3C
102
{ACAD_REACTORS
330
2A
102
}
330
2A
100
AcDbProxyObject
 90
      499
 91
      501
 93
      444
310
42D3DD995C9A185B99D3D999915409028333333333333E33F0000000000000F9010790141107004050150941D405064090741402480A0350
1001
ACAD
1000
AcDbSavedByObjectVersion
1070
     0
  0
ACAD_PROXY_OBJECT
  5
33
102
{ACAD_REACTORS
330
2A
102
}
330
2A
100
AcDbProxyObject
 90
      499
 91
      501
 93
      428
310
425499585B1A5CDD1A58D08409038333333333333E33F0000000000000F9010740A907004050150800405405064090740C02480A1B40
1001
ACAD
1000
AcDbSavedByObjectVersion
1070
     0
  0
ACAD_PROXY_OBJECT
  5
42
102
{ACAD_REACTORS
330
2A
102
}
330
2A
100
AcDbProxyObject
 90
      499
 91
      501
 93
      420
310
4194DA1859195911B40902404333333333333E33F0000000000000F9010740A41107004050150800405405064090840C02480A0B40
1001
ACAD
1000
AcDbSavedByObjectVersion
1070
     0
  0
ACAD_PROXY_OBJECT
  5
41
102
{ACAD_REACTORS
330
2A
102
}
330
2A
100
AcDbProxyObject
 90
      499
 91
      501
 93
      516
310
4454DA18591959081DDA5D1A08195919D95CD1A40902404333333333333E33F0000000000000F901074090142907004050250800405405064090740C02480A0B40
1001
ACAD
1000
AcDbSavedByObjectVersion
1070
     0
  0
ACAD_PROXY_OBJECT
  5
3E
102
{ACAD_REACTORS
330
2A
102
}
330
2A
100
AcDbProxyObject
 90
      499
 91
      501
 93
      532
310
4394DA1859195CC81BD98811DC985E5174090240C333333333333E33F0000000000000F901079024090741D01000000000000111010841D405064090740C02480A0340
1001
ACAD
1000
AcDbSavedByObjectVersion
1070
     0
  0
ACAD_PROXY_OBJECT
  5
3F
102
{ACAD_REACTORS
330
2A
102
}
330
2A
100
AcDbProxyObject
 90
      499
 91
      501
 93
      476
310
41D4DAD95D18DA1E51840502408333333333333E33F0000000000000F901079024090741D01000000000000111010B41D405064090741802480A0340
1001
ACAD
1000
AcDbSavedByObjectVersion
1070
     0
  0
ACAD_PROXY_OBJECT
  5
37
102
{ACAD_REACTORS
330
2A
102
}
330
2A
100
AcDbProxyObject
 90
      499
 91
      501
 93
      412
310
41D51A1A58DAD95B90D409028333333333333E33F0000000000000F9010790141107004050150C41D405064090741402480A0350
1001
ACAD
1000
AcDbSavedByObjectVersion
1070
     0
  0
ACAD_PROXY_OBJECT
  5
30
102
{ACAD_REACTORS
330
2A
102
}
330
2A
100
AcDbProxyObject
 90
      499
 91
      501
 93
      420
310
4255DA5C99599C985B595059028333333333333E33F0000000000000F90107901411070040501600405405064090740C02480A0340
1001
ACAD
1000
AcDbSavedByObjectVersion
1070
     0
  0
ACAD_PROXY_OBJECT
  5
40
102
{ACAD_REACTORS
330
2A
102
}
330
2A
100
AcDbProxyObject
 90
      499
 91
      501
 93
      404
310
41560B54985E51940902404000000000000E03F0000000000000F9010740501907004050150841D405064090740C02480A1B40
1001
ACAD
1000
AcDbSavedByObjectVersion
1070
     0
  0
XRECORD
  5
1000053C
102
{ACAD_REACTORS
330
10000532
102
}
330
10000532
100
AcDbXrecord
340
0
  0
XRECORD
  5
1000053B
102
{ACAD_REACTORS
330
10000532
102
}
330
10000532
100
AcDbXrecord
 90
        0
  0
XRECORD
  5
10000552
102
{ACAD_REACTORS
330
10000532
102
}
330
10000532
100
AcDbXrecord
1000
DSTYLE
1002
{
1070
   143
 40
0.0393700787401575
1070
   340
340
11
1002
}
  0
XRECORD
  5
1000053D
102
{ACAD_REACTORS
330
10000532
102
}
330
10000532
100
AcDbXrecord
  1
{37657861-b472-3563-b836-f479f230f675}
  0
XRECORD
  5
10000535
102
{ACAD_REACTORS
330
10000532
102
}
330
10000532
100
AcDbXrecord
  1

  0
XRECORD
  5
1000053A
102
{ACAD_REACTORS
330
10000532
102
}
330
10000532
100
AcDbXrecord
 90
        1
  0
XRECORD
  5
10000537
102
{ACAD_REACTORS
330
10000532
102
}
330
10000532
100
AcDbXrecord
340
1A
  0
XRECORD
  5
10000539
102
{ACAD_REACTORS
330
10000532
102
}
330
10000532
100
AcDbXrecord
 90
    10781
  0
XRECORD
  5
10000538
102
{ACAD_REACTORS
330
10000532
102
}
330
10000532
100
AcDbXrecord
340
19
  0
XRECORD
  5
1000053F
102
{ACAD_REACTORS
330
10000532
102
}
330
10000532
100
AcDbXrecord
 40
0.0
  0
XRECORD
  5
10000542
102
{ACAD_REACTORS
330
10000532
102
}
330
10000532
100
AcDbXrecord
340
0
  0
XRECORD
  5
10000548
102
{ACAD_REACTORS
330
10000532
102
}
330
10000532
100
AcDbXrecord
 10
0.0
 20
0.0
 30
0.0
  0
XRECORD
  5
10000544
102
{ACAD_REACTORS
330
10000532
102
}
330
10000532
100
AcDbXrecord
 10
0.0
 20
0.0
 30
0.0
  0
XRECORD
  5
10000547
102
{ACAD_REACTORS
330
10000532
102
}
330
10000532
100
AcDbXrecord
 10
0.0
 20
0.0
 30
0.0
  0
XRECORD
  5
10000545
102
{ACAD_REACTORS
330
10000532
102
}
330
10000532
100
AcDbXrecord
 10
0.0
 20
0.0
 30
0.0
  0
XRECORD
  5
10000546
102
{ACAD_REACTORS
330
10000532
102
}
330
10000532
100
AcDbXrecord
 10
0.0
 20
0.0
 30
0.0
  0
XRECORD
  5
10000543
102
{ACAD_REACTORS
330
10000532
102
}
330
10000532
100
AcDbXrecord
 10
0.0
 20
0.0
 30
0.0
  0
XRECORD
  5
10000540
102
{ACAD_REACTORS
330
10000532
102
}
330
10000532
100
AcDbXrecord
340
0
  0
XRECORD
  5
10000541
102
{ACAD_REACTORS
330
10000532
102
}
330
10000532
100
AcDbXrecord
 70
     0
  0
XRECORD
  5
10000536
102
{ACAD_REACTORS
330
10000532
102
}
330
10000532
100
AcDbXrecord
  1

  0
XRECORD
  5
10000533
102
{ACAD_REACTORS
330
10000532
102
}
330
10000532
100
AcDbXrecord
 90
        1
  0
XRECORD
  5
10000534
102
{ACAD_REACTORS
330
10000532
102
}
330
10000532
100
AcDbXrecord
 90
       70
  0
XRECORD
  5
1000054B
102
{ACAD_REACTORS
330
10000532
102
}
330
10000532
100
AcDbXrecord
340
0
  0
XRECORD
  5
10000551
102
{ACAD_REACTORS
330
10000532
102
}
330
10000532
100
AcDbXrecord
 10
0.0
 20
0.0
 30
0.0
  0
XRECORD
  5
1000054D
102
{ACAD_REACTORS
330
10000532
102
}
330
10000532
100
AcDbXrecord
 10
0.0
 20
0.0
 30
0.0
  0
XRECORD
  5
10000550
102
{ACAD_REACTORS
330
10000532
102
}
330
10000532
100
AcDbXrecord
 10
0.0
 20
0.0
 30
0.0
  0
XRECORD
  5
1000054E
102
{ACAD_REACTORS
330
10000532
102
}
330
10000532
100
AcDbXrecord
 10
0.0
 20
0.0
 30
0.0
  0
XRECORD
  5
1000054F
102
{ACAD_REACTORS
330
10000532
102
}
330
10000532
100
AcDbXrecord
 10
0.0
 20
0.0
 30
0.0
  0
XRECORD
  5
1000054C
102
{ACAD_REACTORS
330
10000532
102
}
330
10000532
100
AcDbXrecord
 10
0.0
 20
0.0
 30
0.0
  0
XRECORD
  5
10000549
102
{ACAD_REACTORS
330
10000532
102
}
330
10000532
100
AcDbXrecord
340
0
  0
XRECORD
  5
1000054A
102
{ACAD_REACTORS
330
10000532
102
}
330
10000532
100
AcDbXrecord
 70
     0
  0
XRECORD
  5
1000053E
102
{ACAD_REACTORS
330
10000532
102
}
330
10000532
100
AcDbXrecord
  1
{FAEB1C32-E019-11D5-929B-00C0DF256EC4}
  0
DICTIONARYVAR
  5
1000055D
102
{ACAD_REACTORS
330
10000553
102
}
330
10000553
100
DictionaryVariables
280
     0
  1
1:1
  0
DICTIONARYVAR
  5
10000555
102
{ACAD_REACTORS
330
10000553
102
}
330
10000553
100
DictionaryVariables
280
     0
  1
Standard
  0
DICTIONARYVAR
  5
10000554
102
{ACAD_REACTORS
330
10000553
102
}
330
10000553
100
DictionaryVariables
280
     0
  1
Standard
  0
DICTIONARYVAR
  5
10000558
102
{ACAD_REACTORS
330
10000553
102
}
330
10000553
100
DictionaryVariables
280
     0
  1
2
  0
DICTIONARYVAR
  5
10000559
102
{ACAD_REACTORS
330
10000553
102
}
330
10000553
100
DictionaryVariables
280
     0
  1
1
  0
DICTIONARYVAR
  5
1000055E
102
{ACAD_REACTORS
330
10000553
102
}
330
10000553
100
DictionaryVariables
280
     0
  1
1
  0
XRECORD
  5
10000003
102
{ACAD_REACTORS
330
10000001
102
}
330
10000001
100
AcDbXrecord
 70
     4
  0
XRECORD
  5
10000002
102
{ACAD_REACTORS
330
10000001
102
}
330
10000001
100
AcDbXrecord
1040
87.0
  0
ACAD_PROXY_OBJECT
  5
10000005
102
{ACAD_REACTORS
330
10000001
102
}
330
10000001
100
AcDbProxyObject
 90
      499
 91
      509
 93
       34
310
40C8804000
  0
DICTIONARY
  5
10000561
330
45
100
AcDbDictionary
280
     1
  3
ACAD_XREC_ROUNDTRIP
360
10000562
  0
DICTIONARY
  5
1000055F
330
44
100
AcDbDictionary
280
     1
  3
ACAD_XREC_ROUNDTRIP
360
10000560
  0
DICTIONARY
  5
10000563
330
46
100
AcDbDictionary
280
     1
  3
ACAD_XREC_ROUNDTRIP
360
10000564
  0
XRECORD
  5
10000562
102
{ACAD_REACTORS
330
10000561
102
}
330
10000561
100
AcDbXrecord
102
MATERIAL
148
0.0
149
0.0
149
0.0
 93
        0
 94
      127
282
     0
 72
     1
 77
     1
171
     1
175
     1
179
     1
273
     0
  0
XRECORD
  5
10000560
102
{ACAD_REACTORS
330
1000055F
102
}
330
1000055F
100
AcDbXrecord
102
MATERIAL
148
0.0
149
0.0
149
0.0
 93
        0
 94
      127
282
     0
 72
     1
 77
     1
171
     1
175
     1
179
     1
273
     0
  0
XRECORD
  5
10000564
102
{ACAD_REACTORS
330
10000563
102
}
330
10000563
100
AcDbXrecord
102
MATERIAL
148
0.0
149
0.0
149
0.0
 93
        0
 94
      127
282
     0
 72
     1
 77
     1
171
     1
175
     1
179
     1
273
     0
  0
ENDSEC
  0
EOF
