  0
SECTION
  2
HEADER
  9
$ANGBASE
  50
0.0
  9
$ANGDIR
  70
1
  9
$MEASUREMENT
  70
1
  0
ENDSEC
  0
SECTION
  2
TABLES
  0
TABLE
  2
LTYPE
  70
4
  0
LTYPE
  5
40F
  2
CONTINUOUS
  70
0
  3
Solid line
  72
65
  73
0
  40
0.0
  0
LTYPE
  5
410
  2
DASHDOT
 70
0
  3
Dash Dot ____ _ ____ _
 72
65
 73
4
 40
2.0
 49
1.25
 49
-0.25
 49
0.25
 49
-0.25
  0
LTYPE
  5
411
  2
DASHED
 70
0
  3
Dashed __ __ __ __ __
 72
65
 73
2
 40
0.75
 49
0.5
 49
-0.25
  0
LTYPE
  5
43B
  2
DOTTED
 70
0
  3
Dotted .  .  .  .
 72
65
 73
2
 40
0.2
 49
0.0
 49
-0.2
  0
ENDTAB
  0
TABLE
  2
STYLE
  70
4
  0
STYLE
  2
KICAD
  70
0
  40
0
  41
1
  42
1
  50
0
  71
0
  3
isocp.shx
  0
STYLE
  2
KICADB
  70
0
  40
0
  41
1
  42
1
  50
0
  71
0
  3
isocp.shx
  0
STYLE
  2
KICADI
  70
0
  40
0
  41
1
  42
1
  50
15
  71
0
  3
isocp.shx
  0
STYLE
  2
KICADBI
  70
0
  40
0
  41
1
  42
1
  50
15
  71
0
  3
isocp.shx
  0
ENDTAB
  0
TABLE
  2
LAYER
  70
1
  0
LAYER
  2
BLACK
  70
0
  62
7
  6
CONTINUOUS
  0
ENDTAB
  0
ENDSEC
  0
SECTION
  2
ENTITIES
0
LINE
8
BLACK
6
CONTINUOUS
10
122.732
20
-115.032
11
122.469
21
-114.98
0
LINE
8
BLACK
6
CONTINUOUS
10
122.469
20
-114.98
11
122.215
21
-114.894
0
LINE
8
BLACK
6
CONTINUOUS
10
122.215
20
-114.894
11
121.975
21
-114.775
0
LINE
8
BLACK
6
CONTINUOUS
10
121.975
20
-114.775
11
121.752
21
-114.626
0
LINE
8
BLACK
6
CONTINUOUS
10
121.752
20
-114.626
11
121.55
21
-114.45
0
LINE
8
BLACK
6
CONTINUOUS
10
121.55
20
-114.45
11
121.374
21
-114.248
0
LINE
8
BLACK
6
CONTINUOUS
10
121.374
20
-114.248
11
121.225
21
-114.025
0
LINE
8
BLACK
6
CONTINUOUS
10
121.225
20
-114.025
11
121.106
21
-113.785
0
LINE
8
BLACK
6
CONTINUOUS
10
121.106
20
-113.785
11
121.02
21
-113.531
0
LINE
8
BLACK
6
CONTINUOUS
10
121.02
20
-113.531
11
120.968
21
-113.268
0
LINE
8
BLACK
6
CONTINUOUS
10
120.968
20
-113.268
11
120.95
21
-113
0
LINE
8
BLACK
6
CONTINUOUS
10
120.95
20
-113
11
120.95
21
-87
0
LINE
8
BLACK
6
CONTINUOUS
10
120.95
20
-87
11
120.968
21
-86.7324
0
LINE
8
BLACK
6
CONTINUOUS
10
120.968
20
-86.7324
11
121.02
21
-86.4694
0
LINE
8
BLACK
6
CONTINUOUS
10
121.02
20
-86.4694
11
121.106
21
-86.2155
0
LINE
8
BLACK
6
CONTINUOUS
10
121.106
20
-86.2155
11
121.225
21
-85.975
0
LINE
8
BLACK
6
CONTINUOUS
10
121.225
20
-85.975
11
121.374
21
-85.752
0
LINE
8
BLACK
6
CONTINUOUS
10
121.374
20
-85.752
11
121.55
21
-85.5504
0
LINE
8
BLACK
6
CONTINUOUS
10
121.55
20
-85.5504
11
121.752
21
-85.3736
0
LINE
8
BLACK
6
CONTINUOUS
10
121.752
20
-85.3736
11
121.975
21
-85.2246
0
LINE
8
BLACK
6
CONTINUOUS
10
121.975
20
-85.2246
11
122.215
21
-85.106
0
LINE
8
BLACK
6
CONTINUOUS
10
122.215
20
-85.106
11
122.469
21
-85.0199
0
LINE
8
BLACK
6
CONTINUOUS
10
122.469
20
-85.0199
11
122.732
21
-84.9675
0
LINE
8
BLACK
6
CONTINUOUS
10
122.732
20
-84.9675
11
123
21
-84.95
0
LINE
8
BLACK
6
CONTINUOUS
10
123
20
-84.95
11
165
21
-84.95
0
LINE
8
BLACK
6
CONTINUOUS
10
165
20
-84.95
11
165.268
21
-84.9675
0
LINE
8
BLACK
6
CONTINUOUS
10
165.268
20
-84.9675
11
165.531
21
-85.0199
0
LINE
8
BLACK
6
CONTINUOUS
10
165.531
20
-85.0199
11
165.785
21
-85.106
0
LINE
8
BLACK
6
CONTINUOUS
10
165.785
20
-85.106
11
166.025
21
-85.2246
0
LINE
8
BLACK
6
CONTINUOUS
10
166.025
20
-85.2246
11
166.248
21
-85.3736
0
LINE
8
BLACK
6
CONTINUOUS
10
166.248
20
-85.3736
11
166.45
21
-85.5504
0
LINE
8
BLACK
6
CONTINUOUS
10
166.45
20
-85.5504
11
166.626
21
-85.752
0
LINE
8
BLACK
6
CONTINUOUS
10
166.626
20
-85.752
11
166.775
21
-85.975
0
LINE
8
BLACK
6
CONTINUOUS
10
166.775
20
-85.975
11
166.894
21
-86.2155
0
LINE
8
BLACK
6
CONTINUOUS
10
166.894
20
-86.2155
11
166.98
21
-86.4694
0
LINE
8
BLACK
6
CONTINUOUS
10
166.98
20
-86.4694
11
167.032
21
-86.7324
0
LINE
8
BLACK
6
CONTINUOUS
10
167.032
20
-86.7324
11
167.05
21
-87
0
LINE
8
BLACK
6
CONTINUOUS
10
167.05
20
-87
11
167.05
21
-113
0
LINE
8
BLACK
6
CONTINUOUS
10
167.05
20
-113
11
167.032
21
-113.268
0
LINE
8
BLACK
6
CONTINUOUS
10
167.032
20
-113.268
11
166.98
21
-113.531
0
LINE
8
BLACK
6
CONTINUOUS
10
166.98
20
-113.531
11
166.894
21
-113.785
0
LINE
8
BLACK
6
CONTINUOUS
10
166.894
20
-113.785
11
166.775
21
-114.025
0
LINE
8
BLACK
6
CONTINUOUS
10
166.775
20
-114.025
11
166.626
21
-114.248
0
LINE
8
BLACK
6
CONTINUOUS
10
166.626
20
-114.248
11
166.45
21
-114.45
0
LINE
8
BLACK
6
CONTINUOUS
10
166.45
20
-114.45
11
166.248
21
-114.626
0
LINE
8
BLACK
6
CONTINUOUS
10
166.248
20
-114.626
11
166.025
21
-114.775
0
LINE
8
BLACK
6
CONTINUOUS
10
166.025
20
-114.775
11
165.785
21
-114.894
0
LINE
8
BLACK
6
CONTINUOUS
10
165.785
20
-114.894
11
165.531
21
-114.98
0
LINE
8
BLACK
6
CONTINUOUS
10
165.531
20
-114.98
11
165.268
21
-115.032
0
LINE
8
BLACK
6
CONTINUOUS
10
165.268
20
-115.032
11
165
21
-115.05
0
LINE
8
BLACK
6
CONTINUOUS
10
165
20
-115.05
11
123
21
-115.05
0
LINE
8
BLACK
6
CONTINUOUS
10
123
20
-115.05
11
122.732
21
-115.032
0
LINE
8
BLACK
6
CONTINUOUS
10
122.991
20
-85.0464
11
122.745
21
-85.0625
0
LINE
8
BLACK
6
CONTINUOUS
10
122.745
20
-85.0625
11
122.494
21
-85.1124
0
LINE
8
BLACK
6
CONTINUOUS
10
122.494
20
-85.1124
11
122.252
21
-85.1946
0
LINE
8
BLACK
6
CONTINUOUS
10
122.252
20
-85.1946
11
122.023
21
-85.3076
0
LINE
8
BLACK
6
CONTINUOUS
10
122.023
20
-85.3076
11
121.81
21
-85.4496
0
LINE
8
BLACK
6
CONTINUOUS
10
121.81
20
-85.4496
11
121.618
21
-85.6182
0
LINE
8
BLACK
6
CONTINUOUS
10
121.618
20
-85.6182
11
121.45
21
-85.8104
0
LINE
8
BLACK
6
CONTINUOUS
10
121.45
20
-85.8104
11
121.308
21
-86.0229
0
LINE
8
BLACK
6
CONTINUOUS
10
121.308
20
-86.0229
11
121.195
21
-86.2522
0
LINE
8
BLACK
6
CONTINUOUS
10
121.195
20
-86.2522
11
121.112
21
-86.4942
0
LINE
8
BLACK
6
CONTINUOUS
10
121.112
20
-86.4942
11
121.063
21
-86.7449
0
LINE
8
BLACK
6
CONTINUOUS
10
121.063
20
-86.7449
11
121.046
21
-86.9913
0
LINE
8
BLACK
6
CONTINUOUS
10
121.046
20
-86.9913
11
121.05
21
-87
0
LINE
8
BLACK
6
CONTINUOUS
10
121.05
20
-87
11
121.05
21
-113
0
LINE
8
BLACK
6
CONTINUOUS
10
121.05
20
-113
11
121.046
21
-113.009
0
LINE
8
BLACK
6
CONTINUOUS
10
121.046
20
-113.009
11
121.063
21
-113.255
0
LINE
8
BLACK
6
CONTINUOUS
10
121.063
20
-113.255
11
121.112
21
-113.506
0
LINE
8
BLACK
6
CONTINUOUS
10
121.112
20
-113.506
11
121.195
21
-113.748
0
LINE
8
BLACK
6
CONTINUOUS
10
121.195
20
-113.748
11
121.308
21
-113.977
0
LINE
8
BLACK
6
CONTINUOUS
10
121.308
20
-113.977
11
121.45
21
-114.19
0
LINE
8
BLACK
6
CONTINUOUS
10
121.45
20
-114.19
11
121.618
21
-114.382
0
LINE
8
BLACK
6
CONTINUOUS
10
121.618
20
-114.382
11
121.81
21
-114.55
0
LINE
8
BLACK
6
CONTINUOUS
10
121.81
20
-114.55
11
122.023
21
-114.692
0
LINE
8
BLACK
6
CONTINUOUS
10
122.023
20
-114.692
11
122.252
21
-114.805
0
LINE
8
BLACK
6
CONTINUOUS
10
122.252
20
-114.805
11
122.494
21
-114.888
0
LINE
8
BLACK
6
CONTINUOUS
10
122.494
20
-114.888
11
122.745
21
-114.937
0
LINE
8
BLACK
6
CONTINUOUS
10
122.745
20
-114.937
11
122.991
21
-114.954
0
LINE
8
BLACK
6
CONTINUOUS
10
122.991
20
-114.954
11
123
21
-114.95
0
LINE
8
BLACK
6
CONTINUOUS
10
123
20
-114.95
11
165
21
-114.95
0
LINE
8
BLACK
6
CONTINUOUS
10
165
20
-114.95
11
165.009
21
-114.954
0
LINE
8
BLACK
6
CONTINUOUS
10
165.009
20
-114.954
11
165.255
21
-114.937
0
LINE
8
BLACK
6
CONTINUOUS
10
165.255
20
-114.937
11
165.506
21
-114.888
0
LINE
8
BLACK
6
CONTINUOUS
10
165.506
20
-114.888
11
165.748
21
-114.805
0
LINE
8
BLACK
6
CONTINUOUS
10
165.748
20
-114.805
11
165.977
21
-114.692
0
LINE
8
BLACK
6
CONTINUOUS
10
165.977
20
-114.692
11
166.19
21
-114.55
0
LINE
8
BLACK
6
CONTINUOUS
10
166.19
20
-114.55
11
166.382
21
-114.382
0
LINE
8
BLACK
6
CONTINUOUS
10
166.382
20
-114.382
11
166.55
21
-114.19
0
LINE
8
BLACK
6
CONTINUOUS
10
166.55
20
-114.19
11
166.692
21
-113.977
0
LINE
8
BLACK
6
CONTINUOUS
10
166.692
20
-113.977
11
166.805
21
-113.748
0
LINE
8
BLACK
6
CONTINUOUS
10
166.805
20
-113.748
11
166.888
21
-113.506
0
LINE
8
BLACK
6
CONTINUOUS
10
166.888
20
-113.506
11
166.937
21
-113.255
0
LINE
8
BLACK
6
CONTINUOUS
10
166.937
20
-113.255
11
166.954
21
-113.009
0
LINE
8
BLACK
6
CONTINUOUS
10
166.954
20
-113.009
11
166.95
21
-113
0
LINE
8
BLACK
6
CONTINUOUS
10
166.95
20
-113
11
166.95
21
-87
0
LINE
8
BLACK
6
CONTINUOUS
10
166.95
20
-87
11
166.954
21
-86.9913
0
LINE
8
BLACK
6
CONTINUOUS
10
166.954
20
-86.9913
11
166.937
21
-86.7449
0
LINE
8
BLACK
6
CONTINUOUS
10
166.937
20
-86.7449
11
166.888
21
-86.4942
0
LINE
8
BLACK
6
CONTINUOUS
10
166.888
20
-86.4942
11
166.805
21
-86.2522
0
LINE
8
BLACK
6
CONTINUOUS
10
166.805
20
-86.2522
11
166.692
21
-86.0229
0
LINE
8
BLACK
6
CONTINUOUS
10
166.692
20
-86.0229
11
166.55
21
-85.8104
0
LINE
8
BLACK
6
CONTINUOUS
10
166.55
20
-85.8104
11
166.382
21
-85.6182
0
LINE
8
BLACK
6
CONTINUOUS
10
166.382
20
-85.6182
11
166.19
21
-85.4496
0
LINE
8
BLACK
6
CONTINUOUS
10
166.19
20
-85.4496
11
165.977
21
-85.3076
0
LINE
8
BLACK
6
CONTINUOUS
10
165.977
20
-85.3076
11
165.748
21
-85.1946
0
LINE
8
BLACK
6
CONTINUOUS
10
165.748
20
-85.1946
11
165.506
21
-85.1124
0
LINE
8
BLACK
6
CONTINUOUS
10
165.506
20
-85.1124
11
165.255
21
-85.0625
0
LINE
8
BLACK
6
CONTINUOUS
10
165.255
20
-85.0625
11
165.009
21
-85.0464
0
LINE
8
BLACK
6
CONTINUOUS
10
165.009
20
-85.0464
11
165
21
-85.05
0
LINE
8
BLACK
6
CONTINUOUS
10
165
20
-85.05
11
123
21
-85.05
0
LINE
8
BLACK
6
CONTINUOUS
10
123
20
-85.05
11
122.991
21
-85.0464
0
LINE
8
BLACK
6
CONTINUOUS
10
160.318
20
-105.034
11
160.141
21
-104.987
0
LINE
8
BLACK
6
CONTINUOUS
10
160.141
20
-104.987
11
159.975
21
-104.909
0
LINE
8
BLACK
6
CONTINUOUS
10
159.975
20
-104.909
11
159.825
21
-104.804
0
LINE
8
BLACK
6
CONTINUOUS
10
159.825
20
-104.804
11
159.696
21
-104.675
0
LINE
8
BLACK
6
CONTINUOUS
10
159.696
20
-104.675
11
159.591
21
-104.525
0
LINE
8
BLACK
6
CONTINUOUS
10
159.591
20
-104.525
11
159.513
21
-104.359
0
LINE
8
BLACK
6
CONTINUOUS
10
159.513
20
-104.359
11
159.466
21
-104.182
0
LINE
8
BLACK
6
CONTINUOUS
10
159.466
20
-104.182
11
159.45
21
-104
0
LINE
8
BLACK
6
CONTINUOUS
10
159.45
20
-104
11
159.45
21
-96
0
LINE
8
BLACK
6
CONTINUOUS
10
159.45
20
-96
11
159.466
21
-95.8177
0
LINE
8
BLACK
6
CONTINUOUS
10
159.466
20
-95.8177
11
159.513
21
-95.6409
0
LINE
8
BLACK
6
CONTINUOUS
10
159.513
20
-95.6409
11
159.591
21
-95.475
0
LINE
8
BLACK
6
CONTINUOUS
10
159.591
20
-95.475
11
159.696
21
-95.3251
0
LINE
8
BLACK
6
CONTINUOUS
10
159.696
20
-95.3251
11
159.825
21
-95.1957
0
LINE
8
BLACK
6
CONTINUOUS
10
159.825
20
-95.1957
11
159.975
21
-95.0907
0
LINE
8
BLACK
6
CONTINUOUS
10
159.975
20
-95.0907
11
160.141
21
-95.0133
0
LINE
8
BLACK
6
CONTINUOUS
10
160.141
20
-95.0133
11
160.318
21
-94.966
0
LINE
8
BLACK
6
CONTINUOUS
10
160.318
20
-94.966
11
160.5
21
-94.95
0
LINE
8
BLACK
6
CONTINUOUS
10
160.5
20
-94.95
11
162.5
21
-94.95
0
LINE
8
BLACK
6
CONTINUOUS
10
162.5
20
-94.95
11
162.682
21
-94.966
0
LINE
8
BLACK
6
CONTINUOUS
10
162.682
20
-94.966
11
162.859
21
-95.0133
0
LINE
8
BLACK
6
CONTINUOUS
10
162.859
20
-95.0133
11
163.025
21
-95.0907
0
LINE
8
BLACK
6
CONTINUOUS
10
163.025
20
-95.0907
11
163.175
21
-95.1957
0
LINE
8
BLACK
6
CONTINUOUS
10
163.175
20
-95.1957
11
163.304
21
-95.3251
0
LINE
8
BLACK
6
CONTINUOUS
10
163.304
20
-95.3251
11
163.409
21
-95.475
0
LINE
8
BLACK
6
CONTINUOUS
10
163.409
20
-95.475
11
163.487
21
-95.6409
0
LINE
8
BLACK
6
CONTINUOUS
10
163.487
20
-95.6409
11
163.534
21
-95.8177
0
LINE
8
BLACK
6
CONTINUOUS
10
163.534
20
-95.8177
11
163.55
21
-96
0
LINE
8
BLACK
6
CONTINUOUS
10
163.55
20
-96
11
163.55
21
-104
0
LINE
8
BLACK
6
CONTINUOUS
10
163.55
20
-104
11
163.534
21
-104.182
0
LINE
8
BLACK
6
CONTINUOUS
10
163.534
20
-104.182
11
163.487
21
-104.359
0
LINE
8
BLACK
6
CONTINUOUS
10
163.487
20
-104.359
11
163.409
21
-104.525
0
LINE
8
BLACK
6
CONTINUOUS
10
163.409
20
-104.525
11
163.304
21
-104.675
0
LINE
8
BLACK
6
CONTINUOUS
10
163.304
20
-104.675
11
163.175
21
-104.804
0
LINE
8
BLACK
6
CONTINUOUS
10
163.175
20
-104.804
11
163.025
21
-104.909
0
LINE
8
BLACK
6
CONTINUOUS
10
163.025
20
-104.909
11
162.859
21
-104.987
0
LINE
8
BLACK
6
CONTINUOUS
10
162.859
20
-104.987
11
162.682
21
-105.034
0
LINE
8
BLACK
6
CONTINUOUS
10
162.682
20
-105.034
11
162.5
21
-105.05
0
LINE
8
BLACK
6
CONTINUOUS
10
162.5
20
-105.05
11
160.5
21
-105.05
0
LINE
8
BLACK
6
CONTINUOUS
10
160.5
20
-105.05
11
160.318
21
-105.034
0
LINE
8
BLACK
6
CONTINUOUS
10
160.493
20
-95.047
11
160.334
21
-95.0609
0
LINE
8
BLACK
6
CONTINUOUS
10
160.334
20
-95.0609
11
160.174
21
-95.1039
0
LINE
8
BLACK
6
CONTINUOUS
10
160.174
20
-95.1039
11
160.023
21
-95.1741
0
LINE
8
BLACK
6
CONTINUOUS
10
160.023
20
-95.1741
11
159.887
21
-95.2695
0
LINE
8
BLACK
6
CONTINUOUS
10
159.887
20
-95.2695
11
159.769
21
-95.387
0
LINE
8
BLACK
6
CONTINUOUS
10
159.769
20
-95.387
11
159.674
21
-95.5232
0
LINE
8
BLACK
6
CONTINUOUS
10
159.674
20
-95.5232
11
159.604
21
-95.6738
0
LINE
8
BLACK
6
CONTINUOUS
10
159.604
20
-95.6738
11
159.561
21
-95.8344
0
LINE
8
BLACK
6
CONTINUOUS
10
159.561
20
-95.8344
11
159.547
21
-95.9928
0
LINE
8
BLACK
6
CONTINUOUS
10
159.547
20
-95.9928
11
159.55
21
-96
0
LINE
8
BLACK
6
CONTINUOUS
10
159.55
20
-96
11
159.55
21
-104
0
LINE
8
BLACK
6
CONTINUOUS
10
159.55
20
-104
11
159.547
21
-104.007
0
LINE
8
BLACK
6
CONTINUOUS
10
159.547
20
-104.007
11
159.561
21
-104.166
0
LINE
8
BLACK
6
CONTINUOUS
10
159.561
20
-104.166
11
159.604
21
-104.326
0
LINE
8
BLACK
6
CONTINUOUS
10
159.604
20
-104.326
11
159.674
21
-104.477
0
LINE
8
BLACK
6
CONTINUOUS
10
159.674
20
-104.477
11
159.769
21
-104.613
0
LINE
8
BLACK
6
CONTINUOUS
10
159.769
20
-104.613
11
159.887
21
-104.731
0
LINE
8
BLACK
6
CONTINUOUS
10
159.887
20
-104.731
11
160.023
21
-104.826
0
LINE
8
BLACK
6
CONTINUOUS
10
160.023
20
-104.826
11
160.174
21
-104.896
0
LINE
8
BLACK
6
CONTINUOUS
10
160.174
20
-104.896
11
160.334
21
-104.939
0
LINE
8
BLACK
6
CONTINUOUS
10
160.334
20
-104.939
11
160.493
21
-104.953
0
LINE
8
BLACK
6
CONTINUOUS
10
160.493
20
-104.953
11
160.5
21
-104.95
0
LINE
8
BLACK
6
CONTINUOUS
10
160.5
20
-104.95
11
162.5
21
-104.95
0
LINE
8
BLACK
6
CONTINUOUS
10
162.5
20
-104.95
11
162.507
21
-104.953
0
LINE
8
BLACK
6
CONTINUOUS
10
162.507
20
-104.953
11
162.666
21
-104.939
0
LINE
8
BLACK
6
CONTINUOUS
10
162.666
20
-104.939
11
162.826
21
-104.896
0
LINE
8
BLACK
6
CONTINUOUS
10
162.826
20
-104.896
11
162.977
21
-104.826
0
LINE
8
BLACK
6
CONTINUOUS
10
162.977
20
-104.826
11
163.113
21
-104.731
0
LINE
8
BLACK
6
CONTINUOUS
10
163.113
20
-104.731
11
163.231
21
-104.613
0
LINE
8
BLACK
6
CONTINUOUS
10
163.231
20
-104.613
11
163.326
21
-104.477
0
LINE
8
BLACK
6
CONTINUOUS
10
163.326
20
-104.477
11
163.396
21
-104.326
0
LINE
8
BLACK
6
CONTINUOUS
10
163.396
20
-104.326
11
163.439
21
-104.166
0
LINE
8
BLACK
6
CONTINUOUS
10
163.439
20
-104.166
11
163.453
21
-104.007
0
LINE
8
BLACK
6
CONTINUOUS
10
163.453
20
-104.007
11
163.45
21
-104
0
LINE
8
BLACK
6
CONTINUOUS
10
163.45
20
-104
11
163.45
21
-96
0
LINE
8
BLACK
6
CONTINUOUS
10
163.45
20
-96
11
163.453
21
-95.9928
0
LINE
8
BLACK
6
CONTINUOUS
10
163.453
20
-95.9928
11
163.439
21
-95.8344
0
LINE
8
BLACK
6
CONTINUOUS
10
163.439
20
-95.8344
11
163.396
21
-95.6738
0
LINE
8
BLACK
6
CONTINUOUS
10
163.396
20
-95.6738
11
163.326
21
-95.5232
0
LINE
8
BLACK
6
CONTINUOUS
10
163.326
20
-95.5232
11
163.231
21
-95.387
0
LINE
8
BLACK
6
CONTINUOUS
10
163.231
20
-95.387
11
163.113
21
-95.2695
0
LINE
8
BLACK
6
CONTINUOUS
10
163.113
20
-95.2695
11
162.977
21
-95.1741
0
LINE
8
BLACK
6
CONTINUOUS
10
162.977
20
-95.1741
11
162.826
21
-95.1039
0
LINE
8
BLACK
6
CONTINUOUS
10
162.826
20
-95.1039
11
162.666
21
-95.0609
0
LINE
8
BLACK
6
CONTINUOUS
10
162.666
20
-95.0609
11
162.507
21
-95.047
0
LINE
8
BLACK
6
CONTINUOUS
10
162.507
20
-95.047
11
162.5
21
-95.05
0
LINE
8
BLACK
6
CONTINUOUS
10
162.5
20
-95.05
11
160.5
21
-95.05
0
LINE
8
BLACK
6
CONTINUOUS
10
160.5
20
-95.05
11
160.493
21
-95.047
0
LINE
8
BLACK
6
CONTINUOUS
10
125.318
20
-105.034
11
125.141
21
-104.987
0
LINE
8
BLACK
6
CONTINUOUS
10
125.141
20
-104.987
11
124.975
21
-104.909
0
LINE
8
BLACK
6
CONTINUOUS
10
124.975
20
-104.909
11
124.825
21
-104.804
0
LINE
8
BLACK
6
CONTINUOUS
10
124.825
20
-104.804
11
124.696
21
-104.675
0
LINE
8
BLACK
6
CONTINUOUS
10
124.696
20
-104.675
11
124.591
21
-104.525
0
LINE
8
BLACK
6
CONTINUOUS
10
124.591
20
-104.525
11
124.513
21
-104.359
0
LINE
8
BLACK
6
CONTINUOUS
10
124.513
20
-104.359
11
124.466
21
-104.182
0
LINE
8
BLACK
6
CONTINUOUS
10
124.466
20
-104.182
11
124.45
21
-104
0
LINE
8
BLACK
6
CONTINUOUS
10
124.45
20
-104
11
124.45
21
-96
0
LINE
8
BLACK
6
CONTINUOUS
10
124.45
20
-96
11
124.466
21
-95.8177
0
LINE
8
BLACK
6
CONTINUOUS
10
124.466
20
-95.8177
11
124.513
21
-95.6409
0
LINE
8
BLACK
6
CONTINUOUS
10
124.513
20
-95.6409
11
124.591
21
-95.475
0
LINE
8
BLACK
6
CONTINUOUS
10
124.591
20
-95.475
11
124.696
21
-95.3251
0
LINE
8
BLACK
6
CONTINUOUS
10
124.696
20
-95.3251
11
124.825
21
-95.1957
0
LINE
8
BLACK
6
CONTINUOUS
10
124.825
20
-95.1957
11
124.975
21
-95.0907
0
LINE
8
BLACK
6
CONTINUOUS
10
124.975
20
-95.0907
11
125.141
21
-95.0133
0
LINE
8
BLACK
6
CONTINUOUS
10
125.141
20
-95.0133
11
125.318
21
-94.966
0
LINE
8
BLACK
6
CONTINUOUS
10
125.318
20
-94.966
11
125.5
21
-94.95
0
LINE
8
BLACK
6
CONTINUOUS
10
125.5
20
-94.95
11
127.5
21
-94.95
0
LINE
8
BLACK
6
CONTINUOUS
10
127.5
20
-94.95
11
127.682
21
-94.966
0
LINE
8
BLACK
6
CONTINUOUS
10
127.682
20
-94.966
11
127.859
21
-95.0133
0
LINE
8
BLACK
6
CONTINUOUS
10
127.859
20
-95.0133
11
128.025
21
-95.0907
0
LINE
8
BLACK
6
CONTINUOUS
10
128.025
20
-95.0907
11
128.175
21
-95.1957
0
LINE
8
BLACK
6
CONTINUOUS
10
128.175
20
-95.1957
11
128.304
21
-95.3251
0
LINE
8
BLACK
6
CONTINUOUS
10
128.304
20
-95.3251
11
128.409
21
-95.475
0
LINE
8
BLACK
6
CONTINUOUS
10
128.409
20
-95.475
11
128.487
21
-95.6409
0
LINE
8
BLACK
6
CONTINUOUS
10
128.487
20
-95.6409
11
128.534
21
-95.8177
0
LINE
8
BLACK
6
CONTINUOUS
10
128.534
20
-95.8177
11
128.55
21
-96
0
LINE
8
BLACK
6
CONTINUOUS
10
128.55
20
-96
11
128.55
21
-104
0
LINE
8
BLACK
6
CONTINUOUS
10
128.55
20
-104
11
128.534
21
-104.182
0
LINE
8
BLACK
6
CONTINUOUS
10
128.534
20
-104.182
11
128.487
21
-104.359
0
LINE
8
BLACK
6
CONTINUOUS
10
128.487
20
-104.359
11
128.409
21
-104.525
0
LINE
8
BLACK
6
CONTINUOUS
10
128.409
20
-104.525
11
128.304
21
-104.675
0
LINE
8
BLACK
6
CONTINUOUS
10
128.304
20
-104.675
11
128.175
21
-104.804
0
LINE
8
BLACK
6
CONTINUOUS
10
128.175
20
-104.804
11
128.025
21
-104.909
0
LINE
8
BLACK
6
CONTINUOUS
10
128.025
20
-104.909
11
127.859
21
-104.987
0
LINE
8
BLACK
6
CONTINUOUS
10
127.859
20
-104.987
11
127.682
21
-105.034
0
LINE
8
BLACK
6
CONTINUOUS
10
127.682
20
-105.034
11
127.5
21
-105.05
0
LINE
8
BLACK
6
CONTINUOUS
10
127.5
20
-105.05
11
125.5
21
-105.05
0
LINE
8
BLACK
6
CONTINUOUS
10
125.5
20
-105.05
11
125.318
21
-105.034
0
LINE
8
BLACK
6
CONTINUOUS
10
125.493
20
-95.047
11
125.334
21
-95.0609
0
LINE
8
BLACK
6
CONTINUOUS
10
125.334
20
-95.0609
11
125.174
21
-95.1039
0
LINE
8
BLACK
6
CONTINUOUS
10
125.174
20
-95.1039
11
125.023
21
-95.1741
0
LINE
8
BLACK
6
CONTINUOUS
10
125.023
20
-95.1741
11
124.887
21
-95.2695
0
LINE
8
BLACK
6
CONTINUOUS
10
124.887
20
-95.2695
11
124.769
21
-95.387
0
LINE
8
BLACK
6
CONTINUOUS
10
124.769
20
-95.387
11
124.674
21
-95.5232
0
LINE
8
BLACK
6
CONTINUOUS
10
124.674
20
-95.5232
11
124.604
21
-95.6738
0
LINE
8
BLACK
6
CONTINUOUS
10
124.604
20
-95.6738
11
124.561
21
-95.8344
0
LINE
8
BLACK
6
CONTINUOUS
10
124.561
20
-95.8344
11
124.547
21
-95.9928
0
LINE
8
BLACK
6
CONTINUOUS
10
124.547
20
-95.9928
11
124.55
21
-96
0
LINE
8
BLACK
6
CONTINUOUS
10
124.55
20
-96
11
124.55
21
-104
0
LINE
8
BLACK
6
CONTINUOUS
10
124.55
20
-104
11
124.547
21
-104.007
0
LINE
8
BLACK
6
CONTINUOUS
10
124.547
20
-104.007
11
124.561
21
-104.166
0
LINE
8
BLACK
6
CONTINUOUS
10
124.561
20
-104.166
11
124.604
21
-104.326
0
LINE
8
BLACK
6
CONTINUOUS
10
124.604
20
-104.326
11
124.674
21
-104.477
0
LINE
8
BLACK
6
CONTINUOUS
10
124.674
20
-104.477
11
124.769
21
-104.613
0
LINE
8
BLACK
6
CONTINUOUS
10
124.769
20
-104.613
11
124.887
21
-104.731
0
LINE
8
BLACK
6
CONTINUOUS
10
124.887
20
-104.731
11
125.023
21
-104.826
0
LINE
8
BLACK
6
CONTINUOUS
10
125.023
20
-104.826
11
125.174
21
-104.896
0
LINE
8
BLACK
6
CONTINUOUS
10
125.174
20
-104.896
11
125.334
21
-104.939
0
LINE
8
BLACK
6
CONTINUOUS
10
125.334
20
-104.939
11
125.493
21
-104.953
0
LINE
8
BLACK
6
CONTINUOUS
10
125.493
20
-104.953
11
125.5
21
-104.95
0
LINE
8
BLACK
6
CONTINUOUS
10
125.5
20
-104.95
11
127.5
21
-104.95
0
LINE
8
BLACK
6
CONTINUOUS
10
127.5
20
-104.95
11
127.507
21
-104.953
0
LINE
8
BLACK
6
CONTINUOUS
10
127.507
20
-104.953
11
127.666
21
-104.939
0
LINE
8
BLACK
6
CONTINUOUS
10
127.666
20
-104.939
11
127.826
21
-104.896
0
LINE
8
BLACK
6
CONTINUOUS
10
127.826
20
-104.896
11
127.977
21
-104.826
0
LINE
8
BLACK
6
CONTINUOUS
10
127.977
20
-104.826
11
128.113
21
-104.731
0
LINE
8
BLACK
6
CONTINUOUS
10
128.113
20
-104.731
11
128.231
21
-104.613
0
LINE
8
BLACK
6
CONTINUOUS
10
128.231
20
-104.613
11
128.326
21
-104.477
0
LINE
8
BLACK
6
CONTINUOUS
10
128.326
20
-104.477
11
128.396
21
-104.326
0
LINE
8
BLACK
6
CONTINUOUS
10
128.396
20
-104.326
11
128.439
21
-104.166
0
LINE
8
BLACK
6
CONTINUOUS
10
128.439
20
-104.166
11
128.453
21
-104.007
0
LINE
8
BLACK
6
CONTINUOUS
10
128.453
20
-104.007
11
128.45
21
-104
0
LINE
8
BLACK
6
CONTINUOUS
10
128.45
20
-104
11
128.45
21
-96
0
LINE
8
BLACK
6
CONTINUOUS
10
128.45
20
-96
11
128.453
21
-95.9928
0
LINE
8
BLACK
6
CONTINUOUS
10
128.453
20
-95.9928
11
128.439
21
-95.8344
0
LINE
8
BLACK
6
CONTINUOUS
10
128.439
20
-95.8344
11
128.396
21
-95.6738
0
LINE
8
BLACK
6
CONTINUOUS
10
128.396
20
-95.6738
11
128.326
21
-95.5232
0
LINE
8
BLACK
6
CONTINUOUS
10
128.326
20
-95.5232
11
128.231
21
-95.387
0
LINE
8
BLACK
6
CONTINUOUS
10
128.231
20
-95.387
11
128.113
21
-95.2695
0
LINE
8
BLACK
6
CONTINUOUS
10
128.113
20
-95.2695
11
127.977
21
-95.1741
0
LINE
8
BLACK
6
CONTINUOUS
10
127.977
20
-95.1741
11
127.826
21
-95.1039
0
LINE
8
BLACK
6
CONTINUOUS
10
127.826
20
-95.1039
11
127.666
21
-95.0609
0
LINE
8
BLACK
6
CONTINUOUS
10
127.666
20
-95.0609
11
127.507
21
-95.047
0
LINE
8
BLACK
6
CONTINUOUS
10
127.507
20
-95.047
11
127.5
21
-95.05
0
LINE
8
BLACK
6
CONTINUOUS
10
127.5
20
-95.05
11
125.5
21
-95.05
0
LINE
8
BLACK
6
CONTINUOUS
10
125.5
20
-95.05
11
125.493
21
-95.047
0
LINE
8
BLACK
6
CONTINUOUS
10
132.818
20
-93.034
11
132.641
21
-92.9867
0
LINE
8
BLACK
6
CONTINUOUS
10
132.641
20
-92.9867
11
132.475
21
-92.9093
0
LINE
8
BLACK
6
CONTINUOUS
10
132.475
20
-92.9093
11
132.325
21
-92.8043
0
LINE
8
BLACK
6
CONTINUOUS
10
132.325
20
-92.8043
11
132.196
21
-92.6749
0
LINE
8
BLACK
6
CONTINUOUS
10
132.196
20
-92.6749
11
132.091
21
-92.525
0
LINE
8
BLACK
6
CONTINUOUS
10
132.091
20
-92.525
11
132.013
21
-92.3591
0
LINE
8
BLACK
6
CONTINUOUS
10
132.013
20
-92.3591
11
131.966
21
-92.1823
0
LINE
8
BLACK
6
CONTINUOUS
10
131.966
20
-92.1823
11
131.95
21
-92
0
LINE
8
BLACK
6
CONTINUOUS
10
131.95
20
-92
11
131.95
21
-90
0
LINE
8
BLACK
6
CONTINUOUS
10
131.95
20
-90
11
131.966
21
-89.8177
0
LINE
8
BLACK
6
CONTINUOUS
10
131.966
20
-89.8177
11
132.013
21
-89.6409
0
LINE
8
BLACK
6
CONTINUOUS
10
132.013
20
-89.6409
11
132.091
21
-89.475
0
LINE
8
BLACK
6
CONTINUOUS
10
132.091
20
-89.475
11
132.196
21
-89.3251
0
LINE
8
BLACK
6
CONTINUOUS
10
132.196
20
-89.3251
11
132.325
21
-89.1957
0
LINE
8
BLACK
6
CONTINUOUS
10
132.325
20
-89.1957
11
132.475
21
-89.0907
0
LINE
8
BLACK
6
CONTINUOUS
10
132.475
20
-89.0907
11
132.641
21
-89.0133
0
LINE
8
BLACK
6
CONTINUOUS
10
132.641
20
-89.0133
11
132.818
21
-88.966
0
LINE
8
BLACK
6
CONTINUOUS
10
132.818
20
-88.966
11
133
21
-88.95
0
LINE
8
BLACK
6
CONTINUOUS
10
133
20
-88.95
11
141
21
-88.95
0
LINE
8
BLACK
6
CONTINUOUS
10
141
20
-88.95
11
141.182
21
-88.966
0
LINE
8
BLACK
6
CONTINUOUS
10
141.182
20
-88.966
11
141.359
21
-89.0133
0
LINE
8
BLACK
6
CONTINUOUS
10
141.359
20
-89.0133
11
141.525
21
-89.0907
0
LINE
8
BLACK
6
CONTINUOUS
10
141.525
20
-89.0907
11
141.675
21
-89.1957
0
LINE
8
BLACK
6
CONTINUOUS
10
141.675
20
-89.1957
11
141.804
21
-89.3251
0
LINE
8
BLACK
6
CONTINUOUS
10
141.804
20
-89.3251
11
141.909
21
-89.475
0
LINE
8
BLACK
6
CONTINUOUS
10
141.909
20
-89.475
11
141.987
21
-89.6409
0
LINE
8
BLACK
6
CONTINUOUS
10
141.987
20
-89.6409
11
142.034
21
-89.8177
0
LINE
8
BLACK
6
CONTINUOUS
10
142.034
20
-89.8177
11
142.05
21
-90
0
LINE
8
BLACK
6
CONTINUOUS
10
142.05
20
-90
11
142.05
21
-92
0
LINE
8
BLACK
6
CONTINUOUS
10
142.05
20
-92
11
142.034
21
-92.1823
0
LINE
8
BLACK
6
CONTINUOUS
10
142.034
20
-92.1823
11
141.987
21
-92.3591
0
LINE
8
BLACK
6
CONTINUOUS
10
141.987
20
-92.3591
11
141.909
21
-92.525
0
LINE
8
BLACK
6
CONTINUOUS
10
141.909
20
-92.525
11
141.804
21
-92.6749
0
LINE
8
BLACK
6
CONTINUOUS
10
141.804
20
-92.6749
11
141.675
21
-92.8043
0
LINE
8
BLACK
6
CONTINUOUS
10
141.675
20
-92.8043
11
141.525
21
-92.9093
0
LINE
8
BLACK
6
CONTINUOUS
10
141.525
20
-92.9093
11
141.359
21
-92.9867
0
LINE
8
BLACK
6
CONTINUOUS
10
141.359
20
-92.9867
11
141.182
21
-93.034
0
LINE
8
BLACK
6
CONTINUOUS
10
141.182
20
-93.034
11
141
21
-93.05
0
LINE
8
BLACK
6
CONTINUOUS
10
141
20
-93.05
11
133
21
-93.05
0
LINE
8
BLACK
6
CONTINUOUS
10
133
20
-93.05
11
132.818
21
-93.034
0
LINE
8
BLACK
6
CONTINUOUS
10
132.993
20
-89.047
11
132.834
21
-89.0609
0
LINE
8
BLACK
6
CONTINUOUS
10
132.834
20
-89.0609
11
132.674
21
-89.1039
0
LINE
8
BLACK
6
CONTINUOUS
10
132.674
20
-89.1039
11
132.523
21
-89.1741
0
LINE
8
BLACK
6
CONTINUOUS
10
132.523
20
-89.1741
11
132.387
21
-89.2695
0
LINE
8
BLACK
6
CONTINUOUS
10
132.387
20
-89.2695
11
132.269
21
-89.387
0
LINE
8
BLACK
6
CONTINUOUS
10
132.269
20
-89.387
11
132.174
21
-89.5232
0
LINE
8
BLACK
6
CONTINUOUS
10
132.174
20
-89.5232
11
132.104
21
-89.6738
0
LINE
8
BLACK
6
CONTINUOUS
10
132.104
20
-89.6738
11
132.061
21
-89.8344
0
LINE
8
BLACK
6
CONTINUOUS
10
132.061
20
-89.8344
11
132.047
21
-89.9928
0
LINE
8
BLACK
6
CONTINUOUS
10
132.047
20
-89.9928
11
132.05
21
-90
0
LINE
8
BLACK
6
CONTINUOUS
10
132.05
20
-90
11
132.05
21
-92
0
LINE
8
BLACK
6
CONTINUOUS
10
132.05
20
-92
11
132.047
21
-92.0072
0
LINE
8
BLACK
6
CONTINUOUS
10
132.047
20
-92.0072
11
132.061
21
-92.1656
0
LINE
8
BLACK
6
CONTINUOUS
10
132.061
20
-92.1656
11
132.104
21
-92.3262
0
LINE
8
BLACK
6
CONTINUOUS
10
132.104
20
-92.3262
11
132.174
21
-92.4768
0
LINE
8
BLACK
6
CONTINUOUS
10
132.174
20
-92.4768
11
132.269
21
-92.613
0
LINE
8
BLACK
6
CONTINUOUS
10
132.269
20
-92.613
11
132.387
21
-92.7305
0
LINE
8
BLACK
6
CONTINUOUS
10
132.387
20
-92.7305
11
132.523
21
-92.8259
0
LINE
8
BLACK
6
CONTINUOUS
10
132.523
20
-92.8259
11
132.674
21
-92.8961
0
LINE
8
BLACK
6
CONTINUOUS
10
132.674
20
-92.8961
11
132.834
21
-92.9391
0
LINE
8
BLACK
6
CONTINUOUS
10
132.834
20
-92.9391
11
132.993
21
-92.953
0
LINE
8
BLACK
6
CONTINUOUS
10
132.993
20
-92.953
11
133
21
-92.95
0
LINE
8
BLACK
6
CONTINUOUS
10
133
20
-92.95
11
141
21
-92.95
0
LINE
8
BLACK
6
CONTINUOUS
10
141
20
-92.95
11
141.007
21
-92.953
0
LINE
8
BLACK
6
CONTINUOUS
10
141.007
20
-92.953
11
141.166
21
-92.9391
0
LINE
8
BLACK
6
CONTINUOUS
10
141.166
20
-92.9391
11
141.326
21
-92.8961
0
LINE
8
BLACK
6
CONTINUOUS
10
141.326
20
-92.8961
11
141.477
21
-92.8259
0
LINE
8
BLACK
6
CONTINUOUS
10
141.477
20
-92.8259
11
141.613
21
-92.7305
0
LINE
8
BLACK
6
CONTINUOUS
10
141.613
20
-92.7305
11
141.731
21
-92.613
0
LINE
8
BLACK
6
CONTINUOUS
10
141.731
20
-92.613
11
141.826
21
-92.4768
0
LINE
8
BLACK
6
CONTINUOUS
10
141.826
20
-92.4768
11
141.896
21
-92.3262
0
LINE
8
BLACK
6
CONTINUOUS
10
141.896
20
-92.3262
11
141.939
21
-92.1656
0
LINE
8
BLACK
6
CONTINUOUS
10
141.939
20
-92.1656
11
141.953
21
-92.0072
0
LINE
8
BLACK
6
CONTINUOUS
10
141.953
20
-92.0072
11
141.95
21
-92
0
LINE
8
BLACK
6
CONTINUOUS
10
141.95
20
-92
11
141.95
21
-90
0
LINE
8
BLACK
6
CONTINUOUS
10
141.95
20
-90
11
141.953
21
-89.9928
0
LINE
8
BLACK
6
CONTINUOUS
10
141.953
20
-89.9928
11
141.939
21
-89.8344
0
LINE
8
BLACK
6
CONTINUOUS
10
141.939
20
-89.8344
11
141.896
21
-89.6738
0
LINE
8
BLACK
6
CONTINUOUS
10
141.896
20
-89.6738
11
141.826
21
-89.5232
0
LINE
8
BLACK
6
CONTINUOUS
10
141.826
20
-89.5232
11
141.731
21
-89.387
0
LINE
8
BLACK
6
CONTINUOUS
10
141.731
20
-89.387
11
141.613
21
-89.2695
0
LINE
8
BLACK
6
CONTINUOUS
10
141.613
20
-89.2695
11
141.477
21
-89.1741
0
LINE
8
BLACK
6
CONTINUOUS
10
141.477
20
-89.1741
11
141.326
21
-89.1039
0
LINE
8
BLACK
6
CONTINUOUS
10
141.326
20
-89.1039
11
141.166
21
-89.0609
0
LINE
8
BLACK
6
CONTINUOUS
10
141.166
20
-89.0609
11
141.007
21
-89.047
0
LINE
8
BLACK
6
CONTINUOUS
10
141.007
20
-89.047
11
141
21
-89.05
0
LINE
8
BLACK
6
CONTINUOUS
10
141
20
-89.05
11
133
21
-89.05
0
LINE
8
BLACK
6
CONTINUOUS
10
133
20
-89.05
11
132.993
21
-89.047
0
LINE
8
BLACK
6
CONTINUOUS
10
146.818
20
-93.034
11
146.641
21
-92.9867
0
LINE
8
BLACK
6
CONTINUOUS
10
146.641
20
-92.9867
11
146.475
21
-92.9093
0
LINE
8
BLACK
6
CONTINUOUS
10
146.475
20
-92.9093
11
146.325
21
-92.8043
0
LINE
8
BLACK
6
CONTINUOUS
10
146.325
20
-92.8043
11
146.196
21
-92.6749
0
LINE
8
BLACK
6
CONTINUOUS
10
146.196
20
-92.6749
11
146.091
21
-92.525
0
LINE
8
BLACK
6
CONTINUOUS
10
146.091
20
-92.525
11
146.013
21
-92.3591
0
LINE
8
BLACK
6
CONTINUOUS
10
146.013
20
-92.3591
11
145.966
21
-92.1823
0
LINE
8
BLACK
6
CONTINUOUS
10
145.966
20
-92.1823
11
145.95
21
-92
0
LINE
8
BLACK
6
CONTINUOUS
10
145.95
20
-92
11
145.95
21
-90
0
LINE
8
BLACK
6
CONTINUOUS
10
145.95
20
-90
11
145.966
21
-89.8177
0
LINE
8
BLACK
6
CONTINUOUS
10
145.966
20
-89.8177
11
146.013
21
-89.6409
0
LINE
8
BLACK
6
CONTINUOUS
10
146.013
20
-89.6409
11
146.091
21
-89.475
0
LINE
8
BLACK
6
CONTINUOUS
10
146.091
20
-89.475
11
146.196
21
-89.3251
0
LINE
8
BLACK
6
CONTINUOUS
10
146.196
20
-89.3251
11
146.325
21
-89.1957
0
LINE
8
BLACK
6
CONTINUOUS
10
146.325
20
-89.1957
11
146.475
21
-89.0907
0
LINE
8
BLACK
6
CONTINUOUS
10
146.475
20
-89.0907
11
146.641
21
-89.0133
0
LINE
8
BLACK
6
CONTINUOUS
10
146.641
20
-89.0133
11
146.818
21
-88.966
0
LINE
8
BLACK
6
CONTINUOUS
10
146.818
20
-88.966
11
147
21
-88.95
0
LINE
8
BLACK
6
CONTINUOUS
10
147
20
-88.95
11
155
21
-88.95
0
LINE
8
BLACK
6
CONTINUOUS
10
155
20
-88.95
11
155.182
21
-88.966
0
LINE
8
BLACK
6
CONTINUOUS
10
155.182
20
-88.966
11
155.359
21
-89.0133
0
LINE
8
BLACK
6
CONTINUOUS
10
155.359
20
-89.0133
11
155.525
21
-89.0907
0
LINE
8
BLACK
6
CONTINUOUS
10
155.525
20
-89.0907
11
155.675
21
-89.1957
0
LINE
8
BLACK
6
CONTINUOUS
10
155.675
20
-89.1957
11
155.804
21
-89.3251
0
LINE
8
BLACK
6
CONTINUOUS
10
155.804
20
-89.3251
11
155.909
21
-89.475
0
LINE
8
BLACK
6
CONTINUOUS
10
155.909
20
-89.475
11
155.987
21
-89.6409
0
LINE
8
BLACK
6
CONTINUOUS
10
155.987
20
-89.6409
11
156.034
21
-89.8177
0
LINE
8
BLACK
6
CONTINUOUS
10
156.034
20
-89.8177
11
156.05
21
-90
0
LINE
8
BLACK
6
CONTINUOUS
10
156.05
20
-90
11
156.05
21
-92
0
LINE
8
BLACK
6
CONTINUOUS
10
156.05
20
-92
11
156.034
21
-92.1823
0
LINE
8
BLACK
6
CONTINUOUS
10
156.034
20
-92.1823
11
155.987
21
-92.3591
0
LINE
8
BLACK
6
CONTINUOUS
10
155.987
20
-92.3591
11
155.909
21
-92.525
0
LINE
8
BLACK
6
CONTINUOUS
10
155.909
20
-92.525
11
155.804
21
-92.6749
0
LINE
8
BLACK
6
CONTINUOUS
10
155.804
20
-92.6749
11
155.675
21
-92.8043
0
LINE
8
BLACK
6
CONTINUOUS
10
155.675
20
-92.8043
11
155.525
21
-92.9093
0
LINE
8
BLACK
6
CONTINUOUS
10
155.525
20
-92.9093
11
155.359
21
-92.9867
0
LINE
8
BLACK
6
CONTINUOUS
10
155.359
20
-92.9867
11
155.182
21
-93.034
0
LINE
8
BLACK
6
CONTINUOUS
10
155.182
20
-93.034
11
155
21
-93.05
0
LINE
8
BLACK
6
CONTINUOUS
10
155
20
-93.05
11
147
21
-93.05
0
LINE
8
BLACK
6
CONTINUOUS
10
147
20
-93.05
11
146.818
21
-93.034
0
LINE
8
BLACK
6
CONTINUOUS
10
146.993
20
-89.047
11
146.834
21
-89.0609
0
LINE
8
BLACK
6
CONTINUOUS
10
146.834
20
-89.0609
11
146.674
21
-89.1039
0
LINE
8
BLACK
6
CONTINUOUS
10
146.674
20
-89.1039
11
146.523
21
-89.1741
0
LINE
8
BLACK
6
CONTINUOUS
10
146.523
20
-89.1741
11
146.387
21
-89.2695
0
LINE
8
BLACK
6
CONTINUOUS
10
146.387
20
-89.2695
11
146.269
21
-89.387
0
LINE
8
BLACK
6
CONTINUOUS
10
146.269
20
-89.387
11
146.174
21
-89.5232
0
LINE
8
BLACK
6
CONTINUOUS
10
146.174
20
-89.5232
11
146.104
21
-89.6738
0
LINE
8
BLACK
6
CONTINUOUS
10
146.104
20
-89.6738
11
146.061
21
-89.8344
0
LINE
8
BLACK
6
CONTINUOUS
10
146.061
20
-89.8344
11
146.047
21
-89.9928
0
LINE
8
BLACK
6
CONTINUOUS
10
146.047
20
-89.9928
11
146.05
21
-90
0
LINE
8
BLACK
6
CONTINUOUS
10
146.05
20
-90
11
146.05
21
-92
0
LINE
8
BLACK
6
CONTINUOUS
10
146.05
20
-92
11
146.047
21
-92.0072
0
LINE
8
BLACK
6
CONTINUOUS
10
146.047
20
-92.0072
11
146.061
21
-92.1656
0
LINE
8
BLACK
6
CONTINUOUS
10
146.061
20
-92.1656
11
146.104
21
-92.3262
0
LINE
8
BLACK
6
CONTINUOUS
10
146.104
20
-92.3262
11
146.174
21
-92.4768
0
LINE
8
BLACK
6
CONTINUOUS
10
146.174
20
-92.4768
11
146.269
21
-92.613
0
LINE
8
BLACK
6
CONTINUOUS
10
146.269
20
-92.613
11
146.387
21
-92.7305
0
LINE
8
BLACK
6
CONTINUOUS
10
146.387
20
-92.7305
11
146.523
21
-92.8259
0
LINE
8
BLACK
6
CONTINUOUS
10
146.523
20
-92.8259
11
146.674
21
-92.8961
0
LINE
8
BLACK
6
CONTINUOUS
10
146.674
20
-92.8961
11
146.834
21
-92.9391
0
LINE
8
BLACK
6
CONTINUOUS
10
146.834
20
-92.9391
11
146.993
21
-92.953
0
LINE
8
BLACK
6
CONTINUOUS
10
146.993
20
-92.953
11
147
21
-92.95
0
LINE
8
BLACK
6
CONTINUOUS
10
147
20
-92.95
11
155
21
-92.95
0
LINE
8
BLACK
6
CONTINUOUS
10
155
20
-92.95
11
155.007
21
-92.953
0
LINE
8
BLACK
6
CONTINUOUS
10
155.007
20
-92.953
11
155.166
21
-92.9391
0
LINE
8
BLACK
6
CONTINUOUS
10
155.166
20
-92.9391
11
155.326
21
-92.8961
0
LINE
8
BLACK
6
CONTINUOUS
10
155.326
20
-92.8961
11
155.477
21
-92.8259
0
LINE
8
BLACK
6
CONTINUOUS
10
155.477
20
-92.8259
11
155.613
21
-92.7305
0
LINE
8
BLACK
6
CONTINUOUS
10
155.613
20
-92.7305
11
155.731
21
-92.613
0
LINE
8
BLACK
6
CONTINUOUS
10
155.731
20
-92.613
11
155.826
21
-92.4768
0
LINE
8
BLACK
6
CONTINUOUS
10
155.826
20
-92.4768
11
155.896
21
-92.3262
0
LINE
8
BLACK
6
CONTINUOUS
10
155.896
20
-92.3262
11
155.939
21
-92.1656
0
LINE
8
BLACK
6
CONTINUOUS
10
155.939
20
-92.1656
11
155.953
21
-92.0072
0
LINE
8
BLACK
6
CONTINUOUS
10
155.953
20
-92.0072
11
155.95
21
-92
0
LINE
8
BLACK
6
CONTINUOUS
10
155.95
20
-92
11
155.95
21
-90
0
LINE
8
BLACK
6
CONTINUOUS
10
155.95
20
-90
11
155.953
21
-89.9928
0
LINE
8
BLACK
6
CONTINUOUS
10
155.953
20
-89.9928
11
155.939
21
-89.8344
0
LINE
8
BLACK
6
CONTINUOUS
10
155.939
20
-89.8344
11
155.896
21
-89.6738
0
LINE
8
BLACK
6
CONTINUOUS
10
155.896
20
-89.6738
11
155.826
21
-89.5232
0
LINE
8
BLACK
6
CONTINUOUS
10
155.826
20
-89.5232
11
155.731
21
-89.387
0
LINE
8
BLACK
6
CONTINUOUS
10
155.731
20
-89.387
11
155.613
21
-89.2695
0
LINE
8
BLACK
6
CONTINUOUS
10
155.613
20
-89.2695
11
155.477
21
-89.1741
0
LINE
8
BLACK
6
CONTINUOUS
10
155.477
20
-89.1741
11
155.326
21
-89.1039
0
LINE
8
BLACK
6
CONTINUOUS
10
155.326
20
-89.1039
11
155.166
21
-89.0609
0
LINE
8
BLACK
6
CONTINUOUS
10
155.166
20
-89.0609
11
155.007
21
-89.047
0
LINE
8
BLACK
6
CONTINUOUS
10
155.007
20
-89.047
11
155
21
-89.05
0
LINE
8
BLACK
6
CONTINUOUS
10
155
20
-89.05
11
147
21
-89.05
0
LINE
8
BLACK
6
CONTINUOUS
10
147
20
-89.05
11
146.993
21
-89.047
  0
ENDSEC
  0
EOF
